  0
SECTION
  2
HEADER
  9
$ACADVER
  1
AC1032
  9
$ACADMAINTVER
 90
       73
  9
$DWGCODEPAGE
  3
ANSI_949
  9
$LASTSAVEDBY
  1
JHKIM
  9
$REQUIREDVERSIONS
160
                 0
  9
$INSBASE
 10
0.0
 20
0.0
 30
0.0
  9
$EXTMIN
 10
-36.68194119590571
 20
-20.27858664621146
 30
0.0
  9
$EXTMAX
 10
47.0662
 20
36.52503660970001
 30
0.0
  9
$LIMMIN
 10
4.914016666666667
 20
2.820000000000001
  9
$LIMMAX
 10
6.667733333333335
 20
4.231933333333333
  9
$ORTHOMODE
 70
     0
  9
$REGENMODE
 70
     1
  9
$FILLMODE
 70
     1
  9
$QTEXTMODE
 70
     0
  9
$MIRRTEXT
 70
     0
  9
$LTSCALE
 40
25.4
  9
$ATTMODE
 70
     1
  9
$TEXTSIZE
 40
5.08
  9
$TRACEWID
 40
0.05
  9
$TEXTSTYLE
  7
Standard
  9
$CLAYER
  8
0
  9
$CELTYPE
  6
Continuous
  9
$CECOLOR
 62
   256
  9
$CELTSCALE
 40
1.0
  9
$DISPSILH
 70
     0
  9
$DIMSCALE
 40
1.0
  9
$DIMASZ
 40
4.571999999999999
  9
$DIMEXO
 40
1.587499999999999
  9
$DIMDLI
 40
9.651999999999999
  9
$DIMRND
 40
0.0
  9
$DIMDLE
 40
0.0
  9
$DIMEXE
 40
4.571999999999999
  9
$DIMTP
 40
0.0
  9
$DIMTM
 40
0.0
  9
$DIMTXT
 40
4.571999999999999
  9
$DIMCEN
 40
2.285999999999999
  9
$DIMTSZ
 40
0.0
  9
$DIMTOL
 70
     0
  9
$DIMLIM
 70
     0
  9
$DIMTIH
 70
     1
  9
$DIMTOH
 70
     1
  9
$DIMSE1
 70
     0
  9
$DIMSE2
 70
     0
  9
$DIMTAD
 70
     0
  9
$DIMZIN
 70
     0
  9
$DIMBLK
  1

  9
$DIMASO
 70
     1
  9
$DIMSHO
 70
     1
  9
$DIMPOST
  1

  9
$DIMAPOST
  1

  9
$DIMALT
 70
     0
  9
$DIMALTD
 70
     2
  9
$DIMALTF
 40
645.16
  9
$DIMLFAC
 40
1.0
  9
$DIMTOFL
 70
     0
  9
$DIMTVP
 40
0.0
  9
$DIMTIX
 70
     0
  9
$DIMSOXD
 70
     0
  9
$DIMSAH
 70
     0
  9
$DIMBLK1
  1

  9
$DIMBLK2
  1

  9
$DIMSTYLE
  2
Standard
  9
$DIMCLRD
 70
     0
  9
$DIMCLRE
 70
     0
  9
$DIMCLRT
 70
     0
  9
$DIMTFAC
 40
1.0
  9
$DIMGAP
 40
2.285999999999999
  9
$DIMJUST
 70
     0
  9
$DIMSD1
 70
     0
  9
$DIMSD2
 70
     0
  9
$DIMTOLJ
 70
     1
  9
$DIMTZIN
 70
     0
  9
$DIMALTZ
 70
     0
  9
$DIMALTTZ
 70
     0
  9
$DIMUPT
 70
     0
  9
$DIMDEC
 70
     4
  9
$DIMTDEC
 70
     4
  9
$DIMALTU
 70
     2
  9
$DIMALTTD
 70
     2
  9
$DIMTXSTY
  7
Standard
  9
$DIMAUNIT
 70
     0
  9
$DIMADEC
 70
     0
  9
$DIMALTRND
 40
0.0
  9
$DIMAZIN
 70
     0
  9
$DIMDSEP
 70
    46
  9
$DIMATFIT
 70
     3
  9
$DIMFRAC
 70
     0
  9
$DIMLDRBLK
  1

  9
$DIMLUNIT
 70
     2
  9
$DIMLWD
 70
    -2
  9
$DIMLWE
 70
    -2
  9
$DIMTMOVE
 70
     0
  9
$DIMFXL
 40
25.4
  9
$DIMFXLON
 70
     0
  9
$DIMJOGANG
 40
0.7853981633974483
  9
$DIMTFILL
 70
     0
  9
$DIMTFILLCLR
 70
     0
  9
$DIMARCSYM
 70
     0
  9
$DIMLTYPE
  6

  9
$DIMLTEX1
  6

  9
$DIMLTEX2
  6

  9
$DIMTXTDIRECTION
 70
     0
  9
$LUNITS
 70
     2
  9
$LUPREC
 70
     4
  9
$SKETCHINC
 40
0.1
  9
$FILLETRAD
 40
0.0
  9
$AUNITS
 70
     0
  9
$AUPREC
 70
     2
  9
$MENU
  1
.
  9
$ELEVATION
 40
0.0
  9
$PELEVATION
 40
0.0
  9
$THICKNESS
 40
0.0
  9
$LIMCHECK
 70
     0
  9
$CHAMFERA
 40
0.0
  9
$CHAMFERB
 40
0.0
  9
$CHAMFERC
 40
0.0
  9
$CHAMFERD
 40
0.0
  9
$SKPOLY
 70
     0
  9
$TDCREATE
 40
2459500.627557871
  9
$TDUCREATE
 40
2459500.252557871
  9
$TDUPDATE
 40
2459500.638275463
  9
$TDUUPDATE
 40
2459500.263275463
  9
$TDINDWG
 40
0.0107175926
  9
$TDUSRTIMER
 40
0.0107175926
  9
$USRTIMER
 70
     1
  9
$ANGBASE
 50
0.0
  9
$ANGDIR
 70
     0
  9
$PDMODE
 70
     0
  9
$PDSIZE
 40
0.0
  9
$PLINEWID
 40
0.0
  9
$SPLFRAME
 70
     0
  9
$SPLINETYPE
 70
     6
  9
$SPLINESEGS
 70
     8
  9
$HANDSEED
  5
93E
  9
$SURFTAB1
 70
     6
  9
$SURFTAB2
 70
     6
  9
$SURFTYPE
 70
     6
  9
$SURFU
 70
     6
  9
$SURFV
 70
     6
  9
$UCSBASE
  2

  9
$UCSNAME
  2

  9
$UCSORG
 10
0.0
 20
0.0
 30
0.0
  9
$UCSXDIR
 10
1.0
 20
0.0
 30
0.0
  9
$UCSYDIR
 10
0.0
 20
1.0
 30
0.0
  9
$UCSORTHOREF
  2

  9
$UCSORTHOVIEW
 70
     0
  9
$UCSORGTOP
 10
0.0
 20
0.0
 30
0.0
  9
$UCSORGBOTTOM
 10
0.0
 20
0.0
 30
0.0
  9
$UCSORGLEFT
 10
0.0
 20
0.0
 30
0.0
  9
$UCSORGRIGHT
 10
0.0
 20
0.0
 30
0.0
  9
$UCSORGFRONT
 10
0.0
 20
0.0
 30
0.0
  9
$UCSORGBACK
 10
0.0
 20
0.0
 30
0.0
  9
$PUCSBASE
  2

  9
$PUCSNAME
  2

  9
$PUCSORG
 10
0.0
 20
0.0
 30
0.0
  9
$PUCSXDIR
 10
1.0
 20
0.0
 30
0.0
  9
$PUCSYDIR
 10
0.0
 20
1.0
 30
0.0
  9
$PUCSORTHOREF
  2

  9
$PUCSORTHOVIEW
 70
     0
  9
$PUCSORGTOP
 10
0.0
 20
0.0
 30
0.0
  9
$PUCSORGBOTTOM
 10
0.0
 20
0.0
 30
0.0
  9
$PUCSORGLEFT
 10
0.0
 20
0.0
 30
0.0
  9
$PUCSORGRIGHT
 10
0.0
 20
0.0
 30
0.0
  9
$PUCSORGFRONT
 10
0.0
 20
0.0
 30
0.0
  9
$PUCSORGBACK
 10
0.0
 20
0.0
 30
0.0
  9
$USERI1
 70
     0
  9
$USERI2
 70
     0
  9
$USERI3
 70
     0
  9
$USERI4
 70
     0
  9
$USERI5
 70
     0
  9
$USERR1
 40
0.0
  9
$USERR2
 40
0.0
  9
$USERR3
 40
0.0
  9
$USERR4
 40
0.0
  9
$USERR5
 40
0.0
  9
$WORLDVIEW
 70
     1
  9
$SHADEDGE
 70
     3
  9
$SHADEDIF
 70
    70
  9
$TILEMODE
 70
     1
  9
$MAXACTVP
 70
    64
  9
$PINSBASE
 10
0.0
 20
0.0
 30
0.0
  9
$PLIMCHECK
 70
     0
  9
$PEXTMIN
 10
1.000000000000000E+20
 20
1.000000000000000E+20
 30
1.000000000000000E+20
  9
$PEXTMAX
 10
-1.000000000000000E+20
 20
-1.000000000000000E+20
 30
-1.000000000000000E+20
  9
$PLIMMIN
 10
0.0
 20
0.0
  9
$PLIMMAX
 10
12.0
 20
9.0
  9
$UNITMODE
 70
     0
  9
$VISRETAIN
 70
     1
  9
$PLINEGEN
 70
     0
  9
$PSLTSCALE
 70
     1
  9
$TREEDEPTH
 70
  3020
  9
$CMLSTYLE
  2
Standard
  9
$CMLJUST
 70
     0
  9
$CMLSCALE
 40
1.0
  9
$PROXYGRAPHICS
 70
     1
  9
$MEASUREMENT
 70
     1
  9
$CELWEIGHT
370
    -1
  9
$ENDCAPS
280
     0
  9
$JOINSTYLE
280
     0
  9
$LWDISPLAY
290
     0
  9
$INSUNITS
 70
     4
  9
$HYPERLINKBASE
  1

  9
$STYLESHEET
  1

  9
$XEDIT
290
     1
  9
$CEPSNTYPE
380
     0
  9
$PSTYLEMODE
290
     1
  9
$FINGERPRINTGUID
  2
{71C1CEE8-DC44-954D-A2E7-00C704CBE0EB}
  9
$VERSIONGUID
  2
{BC3DC78F-2FF1-7145-B35E-29FE17D61ADB}
  9
$EXTNAMES
290
     1
  9
$PSVPSCALE
 40
0.0
  9
$OLESTARTUP
290
     0
  9
$SORTENTS
280
   127
  9
$INDEXCTL
280
     0
  9
$HIDETEXT
280
     0
  9
$XCLIPFRAME
280
     2
  9
$HALOGAP
280
     0
  9
$OBSCOLOR
 70
   257
  9
$OBSLTYPE
280
     0
  9
$INTERSECTIONDISPLAY
280
     0
  9
$INTERSECTIONCOLOR
 70
   257
  9
$DIMASSOC
280
     1
  9
$PROJECTNAME
  1

  9
$CAMERADISPLAY
290
     0
  9
$LENSLENGTH
 40
50.0
  9
$CAMERAHEIGHT
 40
0.0
  9
$STEPSPERSEC
 40
2.0
  9
$STEPSIZE
 40
6.0
  9
$3DDWFPREC
 40
2.0
  9
$PSOLWIDTH
 40
0.25
  9
$PSOLHEIGHT
 40
4.0
  9
$LOFTANG1
 40
1.570796326794896
  9
$LOFTANG2
 40
1.570796326794896
  9
$LOFTMAG1
 40
0.0
  9
$LOFTMAG2
 40
0.0
  9
$LOFTPARAM
 70
     7
  9
$LOFTNORMALS
280
     1
  9
$LATITUDE
 40
37.795
  9
$LONGITUDE
 40
-122.394
  9
$NORTHDIRECTION
 40
0.0
  9
$TIMEZONE
 70
 -8000
  9
$LIGHTGLYPHDISPLAY
280
     1
  9
$TILEMODELIGHTSYNCH
280
     1
  9
$CMATERIAL
347
11
  9
$SOLIDHIST
280
     0
  9
$SHOWHIST
280
     1
  9
$DWFFRAME
280
     2
  9
$DGNFRAME
280
     0
  9
$REALWORLDSCALE
290
     1
  9
$INTERFERECOLOR
 62
     1
  9
$INTERFEREOBJVS
345
33
  9
$INTERFEREVPVS
346
30
  9
$CSHADOW
280
     0
  9
$SHADOWPLANELOCATION
 40
0.0
  0
ENDSEC
  0
SECTION
  2
CLASSES
  0
CLASS
  1
ACDBDICTIONARYWDFLT
  2
AcDbDictionaryWithDefault
  3
ObjectDBX Classes
 90
        0
 91
        1
280
     0
281
     0
  0
CLASS
  1
MATERIAL
  2
AcDbMaterial
  3
ObjectDBX Classes
 90
     1153
 91
        3
280
     0
281
     0
  0
CLASS
  1
VISUALSTYLE
  2
AcDbVisualStyle
  3
ObjectDBX Classes
 90
     4095
 91
       24
280
     0
281
     0
  0
CLASS
  1
SCALE
  2
AcDbScale
  3
ObjectDBX Classes
 90
     1153
 91
       17
280
     0
281
     0
  0
CLASS
  1
TABLESTYLE
  2
AcDbTableStyle
  3
ObjectDBX Classes
 90
     4095
 91
        1
280
     0
281
     0
  0
CLASS
  1
MLEADERSTYLE
  2
AcDbMLeaderStyle
  3
ACDB_MLEADERSTYLE_CLASS
 90
     4095
 91
        1
280
     0
281
     0
  0
CLASS
  1
ACDBSECTIONVIEWSTYLE
  2
AcDbSectionViewStyle
  3
ObjectDBX Classes
 90
     1025
 91
        1
280
     0
281
     0
  0
CLASS
  1
ACDBDETAILVIEWSTYLE
  2
AcDbDetailViewStyle
  3
ObjectDBX Classes
 90
     1025
 91
        1
280
     0
281
     0
  0
CLASS
  1
DICTIONARYVAR
  2
AcDbDictionaryVar
  3
ObjectDBX Classes
 90
        0
 91
       18
280
     0
281
     0
  0
CLASS
  1
AEC_VARS_DWG_SETUP
  2
AecDbVarsDwgSetup
  3
AecBase80|Product Desc: Autodesk Architectural Desktop 2007 |Company: Autodesk,Inc. |WEB Address: www.autodesk.com
 90
      129
 91
        1
280
     0
281
     0
  0
CLASS
  1
AEC_NOTIFICATION_TRACKER
  2
AecDbNotificationTracker
  3
AecBase80|Product Desc: Autodesk Architectural Desktop 2007 |Company: Autodesk,Inc. |WEB Address: www.autodesk.com
 90
      129
 91
        1
280
     0
281
     0
  0
CLASS
  1
NPOCOLLECTION
  2
AcDbImpNonPersistentObjectsCollection
  3
ObjectDBX Classes
 90
     1153
 91
        1
280
     0
281
     0
  0
CLASS
  1
CELLSTYLEMAP
  2
AcDbCellStyleMap
  3
ObjectDBX Classes
 90
     1152
 91
        1
280
     0
281
     0
  0
ENDSEC
  0
SECTION
  2
TABLES
  0
TABLE
  2
VPORT
  5
8
330
0
100
AcDbSymbolTable
 70
     1
  0
VPORT
  5
89B
330
8
100
AcDbSymbolTableRecord
100
AcDbViewportTableRecord
  2
*Active
 70
     0
 10
0.0
 20
0.0
 11
1.0
 21
1.0
 12
27.49526717534071
 22
10.70476359054945
 13
0.0
 23
0.0
 14
1.0
 24
1.0
 15
0.0
 25
0.0
 16
0.0
 26
0.0
 36
1.0
 17
0.0
 27
0.0
 37
0.0
 40
39.68754710681179
 41
2.318681318681318
 42
50.0
 43
0.0
 44
0.0
 50
0.0
 51
0.0
 71
     0
 72
  1000
 73
     1
 74
     3
 75
     0
 76
     0
 77
     0
 78
     0
281
     0
 65
     1
110
0.0
120
0.0
130
0.0
111
1.0
121
0.0
131
0.0
112
0.0
122
1.0
132
0.0
 79
     0
146
0.0
348
2F
 60
     3
 61
     5
292
     1
282
     1
141
0.0
142
0.0
 63
   250
421
  3355443
1001
ACAD_NAV_VCDISPLAY
1070
     1
  0
ENDTAB
  0
TABLE
  2
LTYPE
  5
5
330
0
100
AcDbSymbolTable
 70
     2
  0
LTYPE
  5
5A
330
5
100
AcDbSymbolTableRecord
100
AcDbLinetypeTableRecord
  2
ByBlock
 70
     0
  3

 72
    65
 73
     0
 40
0.0
  0
LTYPE
  5
5B
330
5
100
AcDbSymbolTableRecord
100
AcDbLinetypeTableRecord
  2
ByLayer
 70
     0
  3

 72
    65
 73
     0
 40
0.0
  0
LTYPE
  5
5C
330
5
100
AcDbSymbolTableRecord
100
AcDbLinetypeTableRecord
  2
Continuous
 70
     0
  3
Solid line
 72
    65
 73
     0
 40
0.0
  0
ENDTAB
  0
TABLE
  2
LAYER
  5
2
330
0
100
AcDbSymbolTable
 70
     4
  0
LAYER
  5
54
330
2
100
AcDbSymbolTableRecord
100
AcDbLayerTableRecord
  2
0
 70
     0
 62
     7
  6
Continuous
370
    -3
390
F
347
21
348
0
  0
LAYER
  5
73
330
2
100
AcDbSymbolTableRecord
100
AcDbLayerTableRecord
  2
SMT
 70
     0
 62
     7
  6
Continuous
370
    -3
390
F
347
21
348
0
  0
LAYER
  5
7A
330
2
100
AcDbSymbolTableRecord
100
AcDbLayerTableRecord
  2
DRL
 70
     0
 62
     7
  6
Continuous
370
    -3
390
F
347
21
348
0
  0
LAYER
  5
248
330
2
100
AcDbSymbolTableRecord
100
AcDbLayerTableRecord
  2
SST
 70
     0
 62
     7
  6
Continuous
370
    -3
390
F
347
21
348
0
  0
ENDTAB
  0
TABLE
  2
STYLE
  5
3
330
0
100
AcDbSymbolTable
 70
     2
  0
STYLE
  5
55
330
3
100
AcDbSymbolTableRecord
100
AcDbTextStyleTableRecord
  2
Standard
 70
     0
 40
0.0
 41
1.0
 50
0.0
 71
     0
 42
5.08
  3
txt
  4

  0
STYLE
  5
59
330
3
100
AcDbSymbolTableRecord
100
AcDbTextStyleTableRecord
  2
Annotative
 70
     0
 40
0.0
 41
1.0
 50
0.0
 71
     0
 42
5.08
  3
txt
  4

1001
AcadAnnotative
1000
AnnotativeData
1002
{
1070
     1
1070
     1
1002
}
  0
ENDTAB
  0
TABLE
  2
VIEW
  5
6
330
0
100
AcDbSymbolTable
 70
     0
  0
ENDTAB
  0
TABLE
  2
UCS
  5
7
330
0
100
AcDbSymbolTable
 70
     0
  0
ENDTAB
  0
TABLE
  2
APPID
  5
9
330
0
100
AcDbSymbolTable
 70
     3
  0
APPID
  5
56
330
9
100
AcDbSymbolTableRecord
100
AcDbRegAppTableRecord
  2
ACAD
 70
     0
  0
APPID
  5
5D
330
9
100
AcDbSymbolTableRecord
100
AcDbRegAppTableRecord
  2
AcadAnnotative
 70
     0
  0
APPID
  5
89A
330
9
100
AcDbSymbolTableRecord
100
AcDbRegAppTableRecord
  2
ACAD_NAV_VCDISPLAY
 70
     0
  0
ENDTAB
  0
TABLE
  2
DIMSTYLE
  5
A
330
0
100
AcDbSymbolTable
 70
     3
100
AcDbDimStyleTable
 71
     1
340
57
  0
DIMSTYLE
105
57
330
A
100
AcDbSymbolTableRecord
100
AcDbDimStyleTableRecord
  2
Standard
 70
     0
 40
1.0
 41
4.571999999999999
 42
1.587499999999999
 43
9.651999999999999
 44
4.571999999999999
 49
25.4
140
4.571999999999999
141
2.285999999999999
143
645.16
147
2.285999999999999
340
55
  0
DIMSTYLE
105
58
330
A
100
AcDbSymbolTableRecord
100
AcDbDimStyleTableRecord
  2
Annotative
 70
     0
 40
1.0
 41
4.571999999999999
 42
1.587499999999999
 43
9.651999999999999
 44
4.571999999999999
 49
25.4
140
4.571999999999999
141
2.285999999999999
143
645.16
147
2.285999999999999
340
55
1001
AcadAnnotative
1000
AnnotativeData
1002
{
1070
     1
1070
     1
1002
}
  0
ENDTAB
  0
TABLE
  2
BLOCK_RECORD
  5
1
330
0
100
AcDbSymbolTable
 70
     1
  0
BLOCK_RECORD
  5
6F
330
1
100
AcDbSymbolTableRecord
100
AcDbBlockTableRecord
  2
*Model_Space
340
72
 70
     0
280
     1
281
     0
  0
BLOCK_RECORD
  5
6B
330
1
100
AcDbSymbolTableRecord
100
AcDbBlockTableRecord
  2
*Paper_Space
340
6E
 70
     0
280
     1
281
     0
  0
ENDTAB
  0
ENDSEC
  0
SECTION
  2
BLOCKS
  0
BLOCK
  5
70
330
6F
100
AcDbEntity
  8
0
100
AcDbBlockBegin
  2
*Model_Space
 70
     0
 10
0.0
 20
0.0
 30
0.0
  3
*Model_Space
  1

  0
ENDBLK
  5
71
330
6F
100
AcDbEntity
  8
0
100
AcDbBlockEnd
  0
BLOCK
  5
6C
330
6B
100
AcDbEntity
 67
     1
  8
0
100
AcDbBlockBegin
  2
*Paper_Space
 70
     0
 10
0.0
 20
0.0
 30
0.0
  3
*Paper_Space
  1

  0
ENDBLK
  5
6D
330
6B
100
AcDbEntity
 67
     1
  8
0
100
AcDbBlockEnd
  0
ENDSEC
  0
SECTION
  2
ENTITIES
  0
SOLID
  5
74
330
6F
100
AcDbEntity
  8
SMT
100
AcDbTrace
 10
7.62
 20
17.0942
 30
0.0
 11
8.9916
 21
17.0942
 31
0.0
 12
7.62
 22
18.2626
 32
0.0
 13
8.9916
 23
18.2626
 33
0.0
  0
SOLID
  5
75
330
6F
100
AcDbEntity
  8
SMT
100
AcDbTrace
 10
10.8204
 20
17.0942
 30
0.0
 11
12.192
 21
17.0942
 31
0.0
 12
10.8204
 22
18.2626
 32
0.0
 13
12.192
 23
18.2626
 33
0.0
  0
SOLID
  5
76
330
6F
100
AcDbEntity
  8
SMT
100
AcDbTrace
 10
12.5476
 20
12.5984
 30
0.0
 11
13.5128
 21
12.5984
 31
0.0
 12
12.5476
 22
13.4112
 32
0.0
 13
13.5128
 23
13.4112
 33
0.0
  0
SOLID
  5
77
330
6F
100
AcDbEntity
  8
SMT
100
AcDbTrace
 10
12.5476
 20
14.0208
 30
0.0
 11
13.5128
 21
14.0208
 31
0.0
 12
12.5476
 22
14.8336
 32
0.0
 13
13.5128
 23
14.8336
 33
0.0
  0
SOLID
  5
78
330
6F
100
AcDbEntity
  8
SMT
100
AcDbTrace
 10
7.62
 20
9.4234
 30
0.0
 11
8.9916
 21
9.4234
 31
0.0
 12
7.62
 22
10.5918
 32
0.0
 13
8.9916
 23
10.5918
 33
0.0
  0
SOLID
  5
79
330
6F
100
AcDbEntity
  8
SMT
100
AcDbTrace
 10
10.8204
 20
9.4234
 30
0.0
 11
12.192
 21
9.4234
 31
0.0
 12
10.8204
 22
10.5918
 32
0.0
 13
12.192
 23
10.5918
 33
0.0
  0
LWPOLYLINE
  5
7B
330
6F
100
AcDbEntity
  8
DRL
100
AcDbPolyline
 90
        2
 70
     1
 43
1.7526
 10
2.9972
 20
2.9972
 42
1.0
 10
4.7244
 20
2.9972
 42
1.0
  0
LWPOLYLINE
  5
7F
330
6F
100
AcDbEntity
  8
DRL
100
AcDbPolyline
 90
        2
 70
     1
 43
1.7526
 10
2.9972
 20
24.9936
 42
1.0
 10
4.7244
 20
24.9936
 42
1.0
  0
LWPOLYLINE
  5
83
330
6F
100
AcDbEntity
  8
DRL
100
AcDbPolyline
 90
        2
 70
     1
 43
1.7526
 10
36.49980000000001
 20
24.9936
 42
1.0
 10
38.22700000000001
 20
24.9936
 42
1.0
  0
LWPOLYLINE
  5
87
330
6F
100
AcDbEntity
  8
DRL
100
AcDbPolyline
 90
        2
 70
     1
 43
1.7526
 10
36.49980000000001
 20
2.9972
 42
1.0
 10
38.22700000000001
 20
2.9972
 42
1.0
  0
LWPOLYLINE
  5
8B
330
6F
100
AcDbEntity
  8
SMT
100
AcDbPolyline
 90
        2
 70
     1
 43
0.7874000000000001
 10
2.5654
 20
20.4216
 42
1.0
 10
3.3274
 20
20.4216
 42
1.0
  0
LWPOLYLINE
  5
8F
330
6F
100
AcDbEntity
  8
DRL
100
AcDbPolyline
 90
        2
 70
     1
 43
0.4572
 10
2.717799999999999
 20
20.4216
 42
1.0
 10
3.175
 20
20.4216
 42
1.0
  0
LWPOLYLINE
  5
93
330
6F
100
AcDbEntity
  8
SMT
100
AcDbPolyline
 90
        2
 70
     1
 43
0.7874000000000001
 10
2.5654
 20
17.8816
 42
1.0
 10
3.3274
 20
17.8816
 42
1.0
  0
LWPOLYLINE
  5
97
330
6F
100
AcDbEntity
  8
DRL
100
AcDbPolyline
 90
        2
 70
     1
 43
0.4572
 10
2.717799999999999
 20
17.8816
 42
1.0
 10
3.175
 20
17.8816
 42
1.0
  0
LWPOLYLINE
  5
9B
330
6F
100
AcDbEntity
  8
SMT
100
AcDbPolyline
 90
        2
 70
     1
 43
0.7874000000000001
 10
2.5654
 20
15.3416
 42
1.0
 10
3.3274
 20
15.3416
 42
1.0
  0
LWPOLYLINE
  5
9F
330
6F
100
AcDbEntity
  8
DRL
100
AcDbPolyline
 90
        2
 70
     1
 43
0.4572
 10
2.717799999999999
 20
15.3416
 42
1.0
 10
3.175
 20
15.3416
 42
1.0
  0
LWPOLYLINE
  5
A3
330
6F
100
AcDbEntity
  8
SMT
100
AcDbPolyline
 90
        2
 70
     1
 43
0.7874000000000001
 10
2.5654
 20
12.8016
 42
1.0
 10
3.3274
 20
12.8016
 42
1.0
  0
LWPOLYLINE
  5
A7
330
6F
100
AcDbEntity
  8
DRL
100
AcDbPolyline
 90
        2
 70
     1
 43
0.4572
 10
2.717799999999999
 20
12.8016
 42
1.0
 10
3.175
 20
12.8016
 42
1.0
  0
LWPOLYLINE
  5
AB
330
6F
100
AcDbEntity
  8
SMT
100
AcDbPolyline
 90
        2
 70
     1
 43
0.7874000000000001
 10
2.5654
 20
10.2616
 42
1.0
 10
3.3274
 20
10.2616
 42
1.0
  0
LWPOLYLINE
  5
AF
330
6F
100
AcDbEntity
  8
DRL
100
AcDbPolyline
 90
        2
 70
     1
 43
0.4572
 10
2.717799999999999
 20
10.2616
 42
1.0
 10
3.175
 20
10.2616
 42
1.0
  0
SOLID
  5
B3
330
6F
100
AcDbEntity
  8
SMT
100
AcDbTrace
 10
2.1082
 20
6.8834
 30
0.0
 11
3.7846
 21
6.8834
 31
0.0
 12
2.1082
 22
8.5598
 32
0.0
 13
3.7846
 23
8.5598
 33
0.0
  0
LWPOLYLINE
  5
B4
330
6F
100
AcDbEntity
  8
DRL
100
AcDbPolyline
 90
        2
 70
     1
 43
0.4826000000000001
 10
2.717799999999999
 20
7.7216
 42
1.0
 10
3.175
 20
7.7216
 42
1.0
  0
LWPOLYLINE
  5
B8
330
6F
100
AcDbEntity
  8
SMT
100
AcDbPolyline
 90
        2
 70
     1
 43
0.7874000000000001
 10
33.7058
 20
21.6916
 42
1.0
 10
34.4678
 20
21.6916
 42
1.0
  0
LWPOLYLINE
  5
BC
330
6F
100
AcDbEntity
  8
DRL
100
AcDbPolyline
 90
        2
 70
     1
 43
0.4572
 10
33.85820000000001
 20
21.6916
 42
1.0
 10
34.3154
 20
21.6916
 42
1.0
  0
LWPOLYLINE
  5
C0
330
6F
100
AcDbEntity
  8
SMT
100
AcDbPolyline
 90
        2
 70
     1
 43
0.7874000000000001
 10
31.16580000000001
 20
21.6916
 42
1.0
 10
31.9278
 20
21.6916
 42
1.0
  0
LWPOLYLINE
  5
C4
330
6F
100
AcDbEntity
  8
DRL
100
AcDbPolyline
 90
        2
 70
     1
 43
0.4572
 10
31.31820000000001
 20
21.6916
 42
1.0
 10
31.7754
 20
21.6916
 42
1.0
  0
LWPOLYLINE
  5
C8
330
6F
100
AcDbEntity
  8
SMT
100
AcDbPolyline
 90
        2
 70
     1
 43
0.7874000000000001
 10
28.6258
 20
21.6916
 42
1.0
 10
29.3878
 20
21.6916
 42
1.0
  0
LWPOLYLINE
  5
CC
330
6F
100
AcDbEntity
  8
DRL
100
AcDbPolyline
 90
        2
 70
     1
 43
0.4572
 10
28.7782
 20
21.6916
 42
1.0
 10
29.2354
 20
21.6916
 42
1.0
  0
LWPOLYLINE
  5
D0
330
6F
100
AcDbEntity
  8
SMT
100
AcDbPolyline
 90
        2
 70
     1
 43
0.7874000000000001
 10
26.0858
 20
21.6916
 42
1.0
 10
26.8478
 20
21.6916
 42
1.0
  0
LWPOLYLINE
  5
D4
330
6F
100
AcDbEntity
  8
DRL
100
AcDbPolyline
 90
        2
 70
     1
 43
0.4572
 10
26.2382
 20
21.6916
 42
1.0
 10
26.6954
 20
21.6916
 42
1.0
  0
LWPOLYLINE
  5
D8
330
6F
100
AcDbEntity
  8
SMT
100
AcDbPolyline
 90
        2
 70
     1
 43
0.7874000000000001
 10
23.5458
 20
21.6916
 42
1.0
 10
24.3078
 20
21.6916
 42
1.0
  0
LWPOLYLINE
  5
DC
330
6F
100
AcDbEntity
  8
DRL
100
AcDbPolyline
 90
        2
 70
     1
 43
0.4572
 10
23.6982
 20
21.6916
 42
1.0
 10
24.1554
 20
21.6916
 42
1.0
  0
LWPOLYLINE
  5
E0
330
6F
100
AcDbEntity
  8
SMT
100
AcDbPolyline
 90
        2
 70
     1
 43
0.7874000000000001
 10
21.0058
 20
21.6916
 42
1.0
 10
21.7678
 20
21.6916
 42
1.0
  0
LWPOLYLINE
  5
E4
330
6F
100
AcDbEntity
  8
DRL
100
AcDbPolyline
 90
        2
 70
     1
 43
0.4572
 10
21.1582
 20
21.6916
 42
1.0
 10
21.6154
 20
21.6916
 42
1.0
  0
LWPOLYLINE
  5
E8
330
6F
100
AcDbEntity
  8
SMT
100
AcDbPolyline
 90
        2
 70
     1
 43
0.7874000000000001
 10
18.4658
 20
21.6916
 42
1.0
 10
19.2278
 20
21.6916
 42
1.0
  0
LWPOLYLINE
  5
EC
330
6F
100
AcDbEntity
  8
DRL
100
AcDbPolyline
 90
        2
 70
     1
 43
0.4572
 10
18.6182
 20
21.6916
 42
1.0
 10
19.0754
 20
21.6916
 42
1.0
  0
LWPOLYLINE
  5
F0
330
6F
100
AcDbEntity
  8
SMT
100
AcDbPolyline
 90
        2
 70
     1
 43
0.7874000000000001
 10
15.9258
 20
21.6916
 42
1.0
 10
16.6878
 20
21.6916
 42
1.0
  0
LWPOLYLINE
  5
F4
330
6F
100
AcDbEntity
  8
DRL
100
AcDbPolyline
 90
        2
 70
     1
 43
0.4572
 10
16.0782
 20
21.6916
 42
1.0
 10
16.5354
 20
21.6916
 42
1.0
  0
LWPOLYLINE
  5
F8
330
6F
100
AcDbEntity
  8
SMT
100
AcDbPolyline
 90
        2
 70
     1
 43
0.7874000000000001
 10
13.3858
 20
21.6916
 42
1.0
 10
14.1478
 20
21.6916
 42
1.0
  0
LWPOLYLINE
  5
FC
330
6F
100
AcDbEntity
  8
DRL
100
AcDbPolyline
 90
        2
 70
     1
 43
0.4572
 10
13.5382
 20
21.6916
 42
1.0
 10
13.9954
 20
21.6916
 42
1.0
  0
LWPOLYLINE
  5
100
330
6F
100
AcDbEntity
  8
SMT
100
AcDbPolyline
 90
        2
 70
     1
 43
0.7874000000000001
 10
10.8458
 20
21.6916
 42
1.0
 10
11.6078
 20
21.6916
 42
1.0
  0
LWPOLYLINE
  5
104
330
6F
100
AcDbEntity
  8
DRL
100
AcDbPolyline
 90
        2
 70
     1
 43
0.4572
 10
10.9982
 20
21.6916
 42
1.0
 10
11.4554
 20
21.6916
 42
1.0
  0
SOLID
  5
108
330
6F
100
AcDbEntity
  8
SMT
100
AcDbTrace
 10
7.8486
 20
20.8534
 30
0.0
 11
9.525
 21
20.8534
 31
0.0
 12
7.8486
 22
22.5298
 32
0.0
 13
9.525
 23
22.5298
 33
0.0
  0
LWPOLYLINE
  5
109
330
6F
100
AcDbEntity
  8
DRL
100
AcDbPolyline
 90
        2
 70
     1
 43
0.4826000000000001
 10
8.458200000000001
 20
21.6916
 42
1.0
 10
8.915399999999999
 20
21.6916
 42
1.0
  0
LWPOLYLINE
  5
10D
330
6F
100
AcDbEntity
  8
SMT
100
AcDbPolyline
 90
        2
 70
     1
 43
0.7874000000000001
 10
8.305800000000001
 20
6.4516
 42
1.0
 10
9.0678
 20
6.4516
 42
1.0
  0
LWPOLYLINE
  5
111
330
6F
100
AcDbEntity
  8
DRL
100
AcDbPolyline
 90
        2
 70
     1
 43
0.4572
 10
8.458200000000001
 20
6.4516
 42
1.0
 10
8.915399999999999
 20
6.4516
 42
1.0
  0
LWPOLYLINE
  5
115
330
6F
100
AcDbEntity
  8
SMT
100
AcDbPolyline
 90
        2
 70
     1
 43
0.7874000000000001
 10
10.8458
 20
6.4516
 42
1.0
 10
11.6078
 20
6.4516
 42
1.0
  0
LWPOLYLINE
  5
119
330
6F
100
AcDbEntity
  8
DRL
100
AcDbPolyline
 90
        2
 70
     1
 43
0.4572
 10
10.9982
 20
6.4516
 42
1.0
 10
11.4554
 20
6.4516
 42
1.0
  0
LWPOLYLINE
  5
11D
330
6F
100
AcDbEntity
  8
SMT
100
AcDbPolyline
 90
        2
 70
     1
 43
0.7874000000000001
 10
13.3858
 20
6.4516
 42
1.0
 10
14.1478
 20
6.4516
 42
1.0
  0
LWPOLYLINE
  5
121
330
6F
100
AcDbEntity
  8
DRL
100
AcDbPolyline
 90
        2
 70
     1
 43
0.4572
 10
13.5382
 20
6.4516
 42
1.0
 10
13.9954
 20
6.4516
 42
1.0
  0
LWPOLYLINE
  5
125
330
6F
100
AcDbEntity
  8
SMT
100
AcDbPolyline
 90
        2
 70
     1
 43
0.7874000000000001
 10
15.9258
 20
6.4516
 42
1.0
 10
16.6878
 20
6.4516
 42
1.0
  0
LWPOLYLINE
  5
129
330
6F
100
AcDbEntity
  8
DRL
100
AcDbPolyline
 90
        2
 70
     1
 43
0.4572
 10
16.0782
 20
6.4516
 42
1.0
 10
16.5354
 20
6.4516
 42
1.0
  0
LWPOLYLINE
  5
12D
330
6F
100
AcDbEntity
  8
SMT
100
AcDbPolyline
 90
        2
 70
     1
 43
0.7874000000000001
 10
18.4658
 20
6.4516
 42
1.0
 10
19.2278
 20
6.4516
 42
1.0
  0
LWPOLYLINE
  5
131
330
6F
100
AcDbEntity
  8
DRL
100
AcDbPolyline
 90
        2
 70
     1
 43
0.4572
 10
18.6182
 20
6.4516
 42
1.0
 10
19.0754
 20
6.4516
 42
1.0
  0
LWPOLYLINE
  5
135
330
6F
100
AcDbEntity
  8
SMT
100
AcDbPolyline
 90
        2
 70
     1
 43
0.7874000000000001
 10
21.0058
 20
6.4516
 42
1.0
 10
21.7678
 20
6.4516
 42
1.0
  0
LWPOLYLINE
  5
139
330
6F
100
AcDbEntity
  8
DRL
100
AcDbPolyline
 90
        2
 70
     1
 43
0.4572
 10
21.1582
 20
6.4516
 42
1.0
 10
21.6154
 20
6.4516
 42
1.0
  0
LWPOLYLINE
  5
13D
330
6F
100
AcDbEntity
  8
SMT
100
AcDbPolyline
 90
        2
 70
     1
 43
0.7874000000000001
 10
23.5458
 20
6.4516
 42
1.0
 10
24.3078
 20
6.4516
 42
1.0
  0
LWPOLYLINE
  5
141
330
6F
100
AcDbEntity
  8
DRL
100
AcDbPolyline
 90
        2
 70
     1
 43
0.4572
 10
23.6982
 20
6.4516
 42
1.0
 10
24.1554
 20
6.4516
 42
1.0
  0
LWPOLYLINE
  5
145
330
6F
100
AcDbEntity
  8
SMT
100
AcDbPolyline
 90
        2
 70
     1
 43
0.7874000000000001
 10
26.0858
 20
6.4516
 42
1.0
 10
26.8478
 20
6.4516
 42
1.0
  0
LWPOLYLINE
  5
149
330
6F
100
AcDbEntity
  8
DRL
100
AcDbPolyline
 90
        2
 70
     1
 43
0.4572
 10
26.2382
 20
6.4516
 42
1.0
 10
26.6954
 20
6.4516
 42
1.0
  0
LWPOLYLINE
  5
14D
330
6F
100
AcDbEntity
  8
SMT
100
AcDbPolyline
 90
        2
 70
     1
 43
0.7874000000000001
 10
28.6258
 20
6.4516
 42
1.0
 10
29.3878
 20
6.4516
 42
1.0
  0
LWPOLYLINE
  5
151
330
6F
100
AcDbEntity
  8
DRL
100
AcDbPolyline
 90
        2
 70
     1
 43
0.4572
 10
28.7782
 20
6.4516
 42
1.0
 10
29.2354
 20
6.4516
 42
1.0
  0
LWPOLYLINE
  5
155
330
6F
100
AcDbEntity
  8
SMT
100
AcDbPolyline
 90
        2
 70
     1
 43
0.7874000000000001
 10
31.16580000000001
 20
6.4516
 42
1.0
 10
31.9278
 20
6.4516
 42
1.0
  0
LWPOLYLINE
  5
159
330
6F
100
AcDbEntity
  8
DRL
100
AcDbPolyline
 90
        2
 70
     1
 43
0.4572
 10
31.31820000000001
 20
6.4516
 42
1.0
 10
31.7754
 20
6.4516
 42
1.0
  0
SOLID
  5
15D
330
6F
100
AcDbEntity
  8
SMT
100
AcDbTrace
 10
33.24860000000001
 20
5.6134
 30
0.0
 11
34.92500000000001
 21
5.6134
 31
0.0
 12
33.24860000000001
 22
7.289799999999999
 32
0.0
 13
34.92500000000001
 23
7.289799999999999
 33
0.0
  0
LWPOLYLINE
  5
15E
330
6F
100
AcDbEntity
  8
DRL
100
AcDbPolyline
 90
        2
 70
     1
 43
0.4826000000000001
 10
33.85820000000001
 20
6.4516
 42
1.0
 10
34.3154
 20
6.4516
 42
1.0
  0
SOLID
  5
162
330
6F
100
AcDbEntity
  8
SMT
100
AcDbTrace
 10
37.56660000000001
 20
19.6088
 30
0.0
 11
38.5318
 21
19.6088
 31
0.0
 12
37.56660000000001
 22
20.4216
 32
0.0
 13
38.5318
 23
20.4216
 33
0.0
  0
SOLID
  5
163
330
6F
100
AcDbEntity
  8
SMT
100
AcDbTrace
 10
37.56660000000001
 20
18.1864
 30
0.0
 11
38.5318
 21
18.1864
 31
0.0
 12
37.56660000000001
 22
18.9992
 32
0.0
 13
38.5318
 23
18.9992
 33
0.0
  0
SOLID
  5
164
330
6F
100
AcDbEntity
  8
SMT
100
AcDbTrace
 10
37.56660000000001
 20
9.525
 30
0.0
 11
38.5318
 21
9.525
 31
0.0
 12
37.56660000000001
 22
10.3378
 32
0.0
 13
38.5318
 23
10.3378
 33
0.0
  0
SOLID
  5
165
330
6F
100
AcDbEntity
  8
SMT
100
AcDbTrace
 10
37.56660000000001
 20
8.1026
 30
0.0
 11
38.5318
 21
8.1026
 31
0.0
 12
37.56660000000001
 22
8.915399999999999
 32
0.0
 13
38.5318
 23
8.915399999999999
 33
0.0
  0
SOLID
  5
166
330
6F
100
AcDbEntity
  8
SMT
100
AcDbTrace
 10
37.56660000000001
 20
12.8778
 30
0.0
 11
38.5318
 21
12.8778
 31
0.0
 12
37.56660000000001
 22
13.6906
 32
0.0
 13
38.5318
 23
13.6906
 33
0.0
  0
SOLID
  5
167
330
6F
100
AcDbEntity
  8
SMT
100
AcDbTrace
 10
37.56660000000001
 20
11.4554
 30
0.0
 11
38.5318
 21
11.4554
 31
0.0
 12
37.56660000000001
 22
12.2682
 32
0.0
 13
38.5318
 23
12.2682
 33
0.0
  0
SOLID
  5
168
330
6F
100
AcDbEntity
  8
SMT
100
AcDbTrace
 10
37.56660000000001
 20
16.2814
 30
0.0
 11
38.5318
 21
16.2814
 31
0.0
 12
37.56660000000001
 22
17.0942
 32
0.0
 13
38.5318
 23
17.0942
 33
0.0
  0
SOLID
  5
169
330
6F
100
AcDbEntity
  8
SMT
100
AcDbTrace
 10
37.56660000000001
 20
14.859
 30
0.0
 11
38.5318
 21
14.859
 31
0.0
 12
37.56660000000001
 22
15.6718
 32
0.0
 13
38.5318
 23
15.6718
 33
0.0
  0
SOLID
  5
16A
330
6F
100
AcDbEntity
  8
SMT
100
AcDbTrace
 10
16.1036
 20
14.0716
 30
0.0
 11
16.9672
 21
14.0716
 31
0.0
 12
16.1036
 22
15.3416
 32
0.0
 13
16.9672
 23
15.3416
 33
0.0
  0
SOLID
  5
16B
330
6F
100
AcDbEntity
  8
SMT
100
AcDbTrace
 10
17.0434
 20
12.192
 30
0.0
 11
17.907
 21
12.192
 31
0.0
 12
17.0434
 22
13.208
 32
0.0
 13
17.907
 23
13.208
 33
0.0
  0
SOLID
  5
16C
330
6F
100
AcDbEntity
  8
SMT
100
AcDbTrace
 10
15.1638
 20
12.192
 30
0.0
 11
16.0274
 21
12.192
 31
0.0
 12
15.1638
 22
13.208
 32
0.0
 13
16.0274
 23
13.208
 33
0.0
  0
SOLID
  5
16D
330
6F
100
AcDbEntity
  8
SMT
100
AcDbTrace
 10
28.87980000000001
 20
13.97
 30
0.0
 11
29.74340000000001
 21
13.97
 31
0.0
 12
28.87980000000001
 22
15.24
 32
0.0
 13
29.74340000000001
 23
15.24
 33
0.0
  0
SOLID
  5
16E
330
6F
100
AcDbEntity
  8
SMT
100
AcDbTrace
 10
29.8196
 20
12.0904
 30
0.0
 11
30.6832
 21
12.0904
 31
0.0
 12
29.8196
 22
13.1064
 32
0.0
 13
30.6832
 23
13.1064
 33
0.0
  0
SOLID
  5
16F
330
6F
100
AcDbEntity
  8
SMT
100
AcDbTrace
 10
27.94
 20
12.0904
 30
0.0
 11
28.8036
 21
12.0904
 31
0.0
 12
27.94
 22
13.1064
 32
0.0
 13
28.8036
 23
13.1064
 33
0.0
  0
SOLID
  5
170
330
6F
100
AcDbEntity
  8
SMT
100
AcDbTrace
 10
34.18840000000001
 20
16.6878
 30
0.0
 11
35.0012
 21
16.6878
 31
0.0
 12
34.18840000000001
 22
17.653
 32
0.0
 13
35.0012
 23
17.653
 33
0.0
  0
SOLID
  5
171
330
6F
100
AcDbEntity
  8
SMT
100
AcDbTrace
 10
32.76600000000001
 20
16.6878
 30
0.0
 11
33.5788
 21
16.6878
 31
0.0
 12
32.76600000000001
 22
17.653
 32
0.0
 13
33.5788
 23
17.653
 33
0.0
  0
SOLID
  5
172
330
6F
100
AcDbEntity
  8
SMT
100
AcDbTrace
 10
32.76600000000001
 20
9.779000000000001
 30
0.0
 11
33.5788
 21
9.779000000000001
 31
0.0
 12
32.76600000000001
 22
10.7442
 32
0.0
 13
33.5788
 23
10.7442
 33
0.0
  0
SOLID
  5
173
330
6F
100
AcDbEntity
  8
SMT
100
AcDbTrace
 10
34.18840000000001
 20
9.779000000000001
 30
0.0
 11
35.0012
 21
9.779000000000001
 31
0.0
 12
34.18840000000001
 22
10.7442
 32
0.0
 13
35.0012
 23
10.7442
 33
0.0
  0
SOLID
  5
174
330
6F
100
AcDbEntity
  8
SMT
100
AcDbTrace
 10
32.76600000000001
 20
12.0142
 30
0.0
 11
33.5788
 21
12.0142
 31
0.0
 12
32.76600000000001
 22
12.9794
 32
0.0
 13
33.5788
 23
12.9794
 33
0.0
  0
SOLID
  5
175
330
6F
100
AcDbEntity
  8
SMT
100
AcDbTrace
 10
34.18840000000001
 20
12.0142
 30
0.0
 11
35.0012
 21
12.0142
 31
0.0
 12
34.18840000000001
 22
12.9794
 32
0.0
 13
35.0012
 23
12.9794
 33
0.0
  0
SOLID
  5
176
330
6F
100
AcDbEntity
  8
SMT
100
AcDbTrace
 10
34.18840000000001
 20
14.351
 30
0.0
 11
35.0012
 21
14.351
 31
0.0
 12
34.18840000000001
 22
15.3162
 32
0.0
 13
35.0012
 23
15.3162
 33
0.0
  0
SOLID
  5
177
330
6F
100
AcDbEntity
  8
SMT
100
AcDbTrace
 10
32.76600000000001
 20
14.351
 30
0.0
 11
33.5788
 21
14.351
 31
0.0
 12
32.76600000000001
 22
15.3162
 32
0.0
 13
33.5788
 23
15.3162
 33
0.0
  0
SOLID
  5
178
330
6F
100
AcDbEntity
  8
SMT
100
AcDbTrace
 10
19.3802
 20
13.7922
 30
0.0
 11
20.3454
 21
13.7922
 31
0.0
 12
19.3802
 22
14.605
 32
0.0
 13
20.3454
 23
14.605
 33
0.0
  0
SOLID
  5
179
330
6F
100
AcDbEntity
  8
SMT
100
AcDbTrace
 10
19.3802
 20
12.3698
 30
0.0
 11
20.3454
 21
12.3698
 31
0.0
 12
19.3802
 22
13.1826
 32
0.0
 13
20.3454
 23
13.1826
 33
0.0
  0
SOLID
  5
17A
330
6F
100
AcDbEntity
  8
SMT
100
AcDbTrace
 10
21.2598
 20
13.7922
 30
0.0
 11
22.225
 21
13.7922
 31
0.0
 12
21.2598
 22
14.605
 32
0.0
 13
22.225
 23
14.605
 33
0.0
  0
SOLID
  5
17B
330
6F
100
AcDbEntity
  8
SMT
100
AcDbTrace
 10
21.2598
 20
12.3698
 30
0.0
 11
22.225
 21
12.3698
 31
0.0
 12
21.2598
 22
13.1826
 32
0.0
 13
22.225
 23
13.1826
 33
0.0
  0
SOLID
  5
17C
330
6F
100
AcDbEntity
  8
SMT
100
AcDbTrace
 10
25.7048
 20
12.3444
 30
0.0
 11
26.67
 21
12.3444
 31
0.0
 12
25.7048
 22
13.1572
 32
0.0
 13
26.67
 23
13.1572
 33
0.0
  0
SOLID
  5
17D
330
6F
100
AcDbEntity
  8
SMT
100
AcDbTrace
 10
25.7048
 20
13.7668
 30
0.0
 11
26.67
 21
13.7668
 31
0.0
 12
25.7048
 22
14.5796
 32
0.0
 13
26.67
 23
14.5796
 33
0.0
  0
SOLID
  5
17E
330
6F
100
AcDbEntity
  8
SMT
100
AcDbTrace
 10
23.5458
 20
13.7922
 30
0.0
 11
24.511
 21
13.7922
 31
0.0
 12
23.5458
 22
14.605
 32
0.0
 13
24.511
 23
14.605
 33
0.0
  0
SOLID
  5
17F
330
6F
100
AcDbEntity
  8
SMT
100
AcDbTrace
 10
23.5458
 20
12.3698
 30
0.0
 11
24.511
 21
12.3698
 31
0.0
 12
23.5458
 22
13.1826
 32
0.0
 13
24.511
 23
13.1826
 33
0.0
  0
SOLID
  5
180
330
6F
100
AcDbEntity
  8
SMT
100
AcDbTrace
 10
25.24760000000001
 20
8.915399999999999
 30
0.0
 11
26.0604
 21
8.915399999999999
 31
0.0
 12
25.24760000000001
 22
9.880600000000001
 32
0.0
 13
26.0604
 23
9.880600000000001
 33
0.0
  0
SOLID
  5
181
330
6F
100
AcDbEntity
  8
SMT
100
AcDbTrace
 10
24.1554
 20
8.915399999999999
 30
0.0
 11
24.9682
 21
8.915399999999999
 31
0.0
 12
24.1554
 22
9.880600000000001
 32
0.0
 13
24.9682
 23
9.880600000000001
 33
0.0
  0
LWPOLYLINE
  5
182
330
6F
100
AcDbEntity
  8
SMT
100
AcDbPolyline
 90
        2
 70
     1
 43
0.381
 10
30.1244
 20
2.9972
 42
1.0
 10
30.48
 20
2.9972
 42
1.0
  0
LWPOLYLINE
  5
186
330
6F
100
AcDbEntity
  8
DRL
100
AcDbPolyline
 90
        2
 70
     1
 43
0.3048
 10
30.1498
 20
2.9972
 42
1.0
 10
30.4546
 20
2.9972
 42
1.0
  0
LWPOLYLINE
  5
18A
330
6F
100
AcDbEntity
  8
SMT
100
AcDbPolyline
 90
        2
 70
     1
 43
0.381
 10
28.1178
 20
2.9972
 42
1.0
 10
28.4734
 20
2.9972
 42
1.0
  0
LWPOLYLINE
  5
18E
330
6F
100
AcDbEntity
  8
DRL
100
AcDbPolyline
 90
        2
 70
     1
 43
0.3048
 10
28.1432
 20
2.9972
 42
1.0
 10
28.44800000000001
 20
2.9972
 42
1.0
  0
LWPOLYLINE
  5
192
330
6F
100
AcDbEntity
  8
SMT
100
AcDbPolyline
 90
        2
 70
     1
 43
0.381
 10
26.1112
 20
2.9972
 42
1.0
 10
26.4668
 20
2.9972
 42
1.0
  0
LWPOLYLINE
  5
196
330
6F
100
AcDbEntity
  8
DRL
100
AcDbPolyline
 90
        2
 70
     1
 43
0.3048
 10
26.1366
 20
2.9972
 42
1.0
 10
26.4414
 20
2.9972
 42
1.0
  0
LWPOLYLINE
  5
19A
330
6F
100
AcDbEntity
  8
SMT
100
AcDbPolyline
 90
        2
 70
     1
 43
0.381
 10
24.1046
 20
2.9972
 42
1.0
 10
24.4602
 20
2.9972
 42
1.0
  0
LWPOLYLINE
  5
19E
330
6F
100
AcDbEntity
  8
DRL
100
AcDbPolyline
 90
        2
 70
     1
 43
0.3048
 10
24.13
 20
2.9972
 42
1.0
 10
24.4348
 20
2.9972
 42
1.0
  0
LWPOLYLINE
  5
1A2
330
6F
100
AcDbEntity
  8
SMT
100
AcDbPolyline
 90
        2
 70
     1
 43
0.381
 10
22.1234
 20
2.9972
 42
1.0
 10
22.479
 20
2.9972
 42
1.0
  0
LWPOLYLINE
  5
1A6
330
6F
100
AcDbEntity
  8
DRL
100
AcDbPolyline
 90
        2
 70
     1
 43
0.3048
 10
22.1488
 20
2.9972
 42
1.0
 10
22.4536
 20
2.9972
 42
1.0
  0
LWPOLYLINE
  5
1AA
330
6F
100
AcDbEntity
  8
SMT
100
AcDbPolyline
 90
        2
 70
     1
 43
0.381
 10
20.1168
 20
2.9972
 42
1.0
 10
20.4724
 20
2.9972
 42
1.0
  0
LWPOLYLINE
  5
1AE
330
6F
100
AcDbEntity
  8
DRL
100
AcDbPolyline
 90
        2
 70
     1
 43
0.3048
 10
20.1422
 20
2.9972
 42
1.0
 10
20.447
 20
2.9972
 42
1.0
  0
LWPOLYLINE
  5
1B2
330
6F
100
AcDbEntity
  8
SMT
100
AcDbPolyline
 90
        2
 70
     1
 43
0.381
 10
18.1102
 20
2.9972
 42
1.0
 10
18.4658
 20
2.9972
 42
1.0
  0
LWPOLYLINE
  5
1B6
330
6F
100
AcDbEntity
  8
DRL
100
AcDbPolyline
 90
        2
 70
     1
 43
0.3048
 10
18.1356
 20
2.9972
 42
1.0
 10
18.4404
 20
2.9972
 42
1.0
  0
LWPOLYLINE
  5
1BA
330
6F
100
AcDbEntity
  8
SMT
100
AcDbPolyline
 90
        2
 70
     1
 43
0.381
 10
16.1036
 20
2.9972
 42
1.0
 10
16.4592
 20
2.9972
 42
1.0
  0
LWPOLYLINE
  5
1BE
330
6F
100
AcDbEntity
  8
DRL
100
AcDbPolyline
 90
        2
 70
     1
 43
0.3048
 10
16.129
 20
2.9972
 42
1.0
 10
16.4338
 20
2.9972
 42
1.0
  0
LWPOLYLINE
  5
1C2
330
6F
100
AcDbEntity
  8
SMT
100
AcDbPolyline
 90
        2
 70
     1
 43
0.381
 10
14.1224
 20
2.9972
 42
1.0
 10
14.478
 20
2.9972
 42
1.0
  0
LWPOLYLINE
  5
1C6
330
6F
100
AcDbEntity
  8
DRL
100
AcDbPolyline
 90
        2
 70
     1
 43
0.3048
 10
14.1478
 20
2.9972
 42
1.0
 10
14.4526
 20
2.9972
 42
1.0
  0
LWPOLYLINE
  5
1CA
330
6F
100
AcDbEntity
  8
SMT
100
AcDbPolyline
 90
        2
 70
     1
 43
0.381
 10
12.1158
 20
2.9972
 42
1.0
 10
12.4714
 20
2.9972
 42
1.0
  0
LWPOLYLINE
  5
1CE
330
6F
100
AcDbEntity
  8
DRL
100
AcDbPolyline
 90
        2
 70
     1
 43
0.3048
 10
12.1412
 20
2.9972
 42
1.0
 10
12.446
 20
2.9972
 42
1.0
  0
LWPOLYLINE
  5
1D2
330
6F
100
AcDbEntity
  8
SMT
100
AcDbPolyline
 90
        2
 70
     1
 43
0.381
 10
12.1158
 20
24.9936
 42
1.0
 10
12.4714
 20
24.9936
 42
1.0
  0
LWPOLYLINE
  5
1D6
330
6F
100
AcDbEntity
  8
DRL
100
AcDbPolyline
 90
        2
 70
     1
 43
0.3048
 10
12.1412
 20
24.9936
 42
1.0
 10
12.446
 20
24.9936
 42
1.0
  0
LWPOLYLINE
  5
1DA
330
6F
100
AcDbEntity
  8
SMT
100
AcDbPolyline
 90
        2
 70
     1
 43
0.381
 10
14.1224
 20
24.9936
 42
1.0
 10
14.478
 20
24.9936
 42
1.0
  0
LWPOLYLINE
  5
1DE
330
6F
100
AcDbEntity
  8
DRL
100
AcDbPolyline
 90
        2
 70
     1
 43
0.3048
 10
14.1478
 20
24.9936
 42
1.0
 10
14.4526
 20
24.9936
 42
1.0
  0
LWPOLYLINE
  5
1E2
330
6F
100
AcDbEntity
  8
SMT
100
AcDbPolyline
 90
        2
 70
     1
 43
0.381
 10
16.1036
 20
24.9936
 42
1.0
 10
16.4592
 20
24.9936
 42
1.0
  0
LWPOLYLINE
  5
1E6
330
6F
100
AcDbEntity
  8
DRL
100
AcDbPolyline
 90
        2
 70
     1
 43
0.3048
 10
16.129
 20
24.9936
 42
1.0
 10
16.4338
 20
24.9936
 42
1.0
  0
LWPOLYLINE
  5
1EA
330
6F
100
AcDbEntity
  8
SMT
100
AcDbPolyline
 90
        2
 70
     1
 43
0.381
 10
18.1102
 20
24.9936
 42
1.0
 10
18.4658
 20
24.9936
 42
1.0
  0
LWPOLYLINE
  5
1EE
330
6F
100
AcDbEntity
  8
DRL
100
AcDbPolyline
 90
        2
 70
     1
 43
0.3048
 10
18.1356
 20
24.9936
 42
1.0
 10
18.4404
 20
24.9936
 42
1.0
  0
LWPOLYLINE
  5
1F2
330
6F
100
AcDbEntity
  8
SMT
100
AcDbPolyline
 90
        2
 70
     1
 43
0.381
 10
20.1168
 20
24.9936
 42
1.0
 10
20.4724
 20
24.9936
 42
1.0
  0
LWPOLYLINE
  5
1F6
330
6F
100
AcDbEntity
  8
DRL
100
AcDbPolyline
 90
        2
 70
     1
 43
0.3048
 10
20.1422
 20
24.9936
 42
1.0
 10
20.447
 20
24.9936
 42
1.0
  0
LWPOLYLINE
  5
1FA
330
6F
100
AcDbEntity
  8
SMT
100
AcDbPolyline
 90
        2
 70
     1
 43
0.381
 10
22.1234
 20
24.9936
 42
1.0
 10
22.479
 20
24.9936
 42
1.0
  0
LWPOLYLINE
  5
1FE
330
6F
100
AcDbEntity
  8
DRL
100
AcDbPolyline
 90
        2
 70
     1
 43
0.3048
 10
22.1488
 20
24.9936
 42
1.0
 10
22.4536
 20
24.9936
 42
1.0
  0
LWPOLYLINE
  5
202
330
6F
100
AcDbEntity
  8
SMT
100
AcDbPolyline
 90
        2
 70
     1
 43
0.381
 10
24.1046
 20
24.9936
 42
1.0
 10
24.4602
 20
24.9936
 42
1.0
  0
LWPOLYLINE
  5
206
330
6F
100
AcDbEntity
  8
DRL
100
AcDbPolyline
 90
        2
 70
     1
 43
0.3048
 10
24.13
 20
24.9936
 42
1.0
 10
24.4348
 20
24.9936
 42
1.0
  0
LWPOLYLINE
  5
20A
330
6F
100
AcDbEntity
  8
SMT
100
AcDbPolyline
 90
        2
 70
     1
 43
0.381
 10
26.1112
 20
24.9936
 42
1.0
 10
26.4668
 20
24.9936
 42
1.0
  0
LWPOLYLINE
  5
20E
330
6F
100
AcDbEntity
  8
DRL
100
AcDbPolyline
 90
        2
 70
     1
 43
0.3048
 10
26.1366
 20
24.9936
 42
1.0
 10
26.4414
 20
24.9936
 42
1.0
  0
LWPOLYLINE
  5
212
330
6F
100
AcDbEntity
  8
SMT
100
AcDbPolyline
 90
        2
 70
     1
 43
0.381
 10
28.1178
 20
24.9936
 42
1.0
 10
28.4734
 20
24.9936
 42
1.0
  0
LWPOLYLINE
  5
216
330
6F
100
AcDbEntity
  8
DRL
100
AcDbPolyline
 90
        2
 70
     1
 43
0.3048
 10
28.1432
 20
24.9936
 42
1.0
 10
28.44800000000001
 20
24.9936
 42
1.0
  0
SOLID
  5
21A
330
6F
100
AcDbEntity
  8
SMT
100
AcDbTrace
 10
29.9212
 20
24.6126
 30
0.0
 11
30.6832
 21
24.6126
 31
0.0
 12
29.9212
 22
25.3746
 32
0.0
 13
30.6832
 23
25.3746
 33
0.0
  0
LWPOLYLINE
  5
21B
330
6F
100
AcDbEntity
  8
DRL
100
AcDbPolyline
 90
        2
 70
     1
 43
0.3048
 10
30.1498
 20
24.9936
 42
1.0
 10
30.4546
 20
24.9936
 42
1.0
  0
SOLID
  5
21F
330
6F
100
AcDbEntity
  8
SMT
100
AcDbTrace
 10
10.5918
 20
11.8872
 30
0.0
 11
11.1506
 21
11.8872
 31
0.0
 12
10.5918
 22
12.8524
 32
0.0
 13
11.1506
 23
12.8524
 33
0.0
  0
SOLID
  5
220
330
6F
100
AcDbEntity
  8
SMT
100
AcDbTrace
 10
8.712200000000001
 20
11.8872
 30
0.0
 11
9.271
 21
11.8872
 31
0.0
 12
8.712200000000001
 22
12.8524
 32
0.0
 13
9.271
 23
12.8524
 33
0.0
  0
SOLID
  5
221
330
6F
100
AcDbEntity
  8
SMT
100
AcDbTrace
 10
8.712200000000001
 20
14.5796
 30
0.0
 11
9.271
 21
14.5796
 31
0.0
 12
8.712200000000001
 22
15.5448
 32
0.0
 13
9.271
 23
15.5448
 33
0.0
  0
SOLID
  5
222
330
6F
100
AcDbEntity
  8
SMT
100
AcDbTrace
 10
9.652000000000001
 20
14.5796
 30
0.0
 11
10.2108
 21
14.5796
 31
0.0
 12
9.652000000000001
 22
15.5448
 32
0.0
 13
10.2108
 23
15.5448
 33
0.0
  0
SOLID
  5
223
330
6F
100
AcDbEntity
  8
SMT
100
AcDbTrace
 10
10.5918
 20
14.5796
 30
0.0
 11
11.1506
 21
14.5796
 31
0.0
 12
10.5918
 22
15.5448
 32
0.0
 13
11.1506
 23
15.5448
 33
0.0
  0
LWPOLYLINE
  5
224
330
6F
100
AcDbEntity
  8
DRL
100
AcDbPolyline
 90
        2
 70
     1
 43
0.2032
 10
36.0172
 20
16.637
 42
1.0
 10
36.2204
 20
16.637
 42
1.0
  0
LWPOLYLINE
  5
228
330
6F
100
AcDbEntity
  8
DRL
100
AcDbPolyline
 90
        2
 70
     1
 43
0.2032
 10
13.8176
 20
11.2522
 42
1.0
 10
14.0208
 20
11.2522
 42
1.0
  0
LWPOLYLINE
  5
22C
330
6F
100
AcDbEntity
  8
DRL
100
AcDbPolyline
 90
        2
 70
     1
 43
0.2032
 10
6.0706
 20
19.4818
 42
1.0
 10
6.2738
 20
19.4818
 42
1.0
  0
LWPOLYLINE
  5
230
330
6F
100
AcDbEntity
  8
DRL
100
AcDbPolyline
 90
        2
 70
     1
 43
0.2032
 10
6.0706
 20
16.7386
 42
1.0
 10
6.2738
 20
16.7386
 42
1.0
  0
LWPOLYLINE
  5
234
330
6F
100
AcDbEntity
  8
DRL
100
AcDbPolyline
 90
        2
 70
     1
 43
0.2032
 10
6.0706
 20
13.9446
 42
1.0
 10
6.2738
 20
13.9446
 42
1.0
  0
LWPOLYLINE
  5
238
330
6F
100
AcDbEntity
  8
DRL
100
AcDbPolyline
 90
        2
 70
     1
 43
0.2032
 10
6.0452
 20
11.4046
 42
1.0
 10
6.2484
 20
11.4046
 42
1.0
  0
LWPOLYLINE
  5
23C
330
6F
100
AcDbEntity
  8
DRL
100
AcDbPolyline
 90
        2
 70
     1
 43
0.2032
 10
6.0452
 20
8.864599999999999
 42
1.0
 10
6.2484
 20
8.864599999999999
 42
1.0
  0
LWPOLYLINE
  5
240
330
6F
100
AcDbEntity
  8
DRL
100
AcDbPolyline
 90
        2
 70
     1
 43
0.2032
 10
8.686800000000001
 20
3.2258
 42
1.0
 10
8.89
 20
3.2258
 42
1.0
  0
LWPOLYLINE
  5
244
330
6F
100
AcDbEntity
  8
DRL
100
AcDbPolyline
 90
        2
 70
     1
 43
0.2032
 10
8.610600000000001
 20
24.4348
 42
1.0
 10
8.8138
 20
24.4348
 42
1.0
  0
LWPOLYLINE
  5
249
330
6F
100
AcDbEntity
  8
SST
100
AcDbPolyline
 90
        3
 70
     1
 43
0.254
 10
36.14420000000001
 20
21.0566
 10
31.6992
 20
25.8826
 10
36.14420000000001
 20
21.0566
  0
LWPOLYLINE
  5
24E
330
6F
100
AcDbEntity
  8
SST
100
AcDbPolyline
 90
        2
 70
     1
 43
0.127
 10
36.08070000000001
 20
21.0566
 42
1.0
 10
36.2077
 20
21.0566
 42
1.0
  0
LWPOLYLINE
  5
252
330
6F
100
AcDbEntity
  8
SST
100
AcDbPolyline
 90
        2
 70
     1
 43
0.127
 10
31.6357
 20
25.8826
 42
1.0
 10
31.76270000000001
 20
25.8826
 42
1.0
  0
LWPOLYLINE
  5
256
330
6F
100
AcDbEntity
  8
SST
100
AcDbPolyline
 90
        2
 70
     1
 43
0.127
 10
36.08070000000001
 20
21.0566
 42
1.0
 10
36.2077
 20
21.0566
 42
1.0
  0
LWPOLYLINE
  5
25A
330
6F
100
AcDbEntity
  8
SST
100
AcDbPolyline
 90
        2
 70
     0
 43
0.254
 10
31.31820000000001
 20
26.1366
 10
5.4102
 20
26.1366
  0
LWPOLYLINE
  5
25E
330
6F
100
AcDbEntity
  8
SST
100
AcDbPolyline
 90
        2
 70
     1
 43
0.127
 10
31.2547
 20
26.1366
 42
1.0
 10
31.38170000000001
 20
26.1366
 42
1.0
  0
LWPOLYLINE
  5
262
330
6F
100
AcDbEntity
  8
SST
100
AcDbPolyline
 90
        2
 70
     1
 43
0.127
 10
5.3467
 20
26.1366
 42
1.0
 10
5.4737
 20
26.1366
 42
1.0
  0
LWPOLYLINE
  5
266
330
6F
100
AcDbEntity
  8
SST
100
AcDbPolyline
 90
        3
 70
     1
 43
0.254
 10
36.14420000000001
 20
6.5786
 10
31.75000000000001
 20
1.9558
 10
36.14420000000001
 20
6.5786
  0
LWPOLYLINE
  5
26B
330
6F
100
AcDbEntity
  8
SST
100
AcDbPolyline
 90
        2
 70
     1
 43
0.127
 10
36.08070000000001
 20
6.5786
 42
1.0
 10
36.2077
 20
6.5786
 42
1.0
  0
LWPOLYLINE
  5
26F
330
6F
100
AcDbEntity
  8
SST
100
AcDbPolyline
 90
        2
 70
     1
 43
0.127
 10
31.6865
 20
1.9558
 42
1.0
 10
31.8135
 20
1.9558
 42
1.0
  0
LWPOLYLINE
  5
273
330
6F
100
AcDbEntity
  8
SST
100
AcDbPolyline
 90
        2
 70
     1
 43
0.127
 10
36.08070000000001
 20
6.5786
 42
1.0
 10
36.2077
 20
6.5786
 42
1.0
  0
LWPOLYLINE
  5
277
330
6F
100
AcDbEntity
  8
SST
100
AcDbPolyline
 90
        2
 70
     0
 43
0.254
 10
31.31820000000001
 20
1.7526
 10
5.4102
 20
1.7526
  0
LWPOLYLINE
  5
27B
330
6F
100
AcDbEntity
  8
SST
100
AcDbPolyline
 90
        2
 70
     1
 43
0.127
 10
31.2547
 20
1.7526
 42
1.0
 10
31.38170000000001
 20
1.7526
 42
1.0
  0
LWPOLYLINE
  5
27F
330
6F
100
AcDbEntity
  8
SST
100
AcDbPolyline
 90
        2
 70
     1
 43
0.127
 10
5.3467
 20
1.7526
 42
1.0
 10
5.4737
 20
1.7526
 42
1.0
  0
LWPOLYLINE
  5
283
330
6F
100
AcDbEntity
  8
SST
100
AcDbPolyline
 90
        5
 70
     1
 43
0.2032
 10
30.8864
 20
24.4094
 10
30.8864
 20
25.6032
 10
11.7094
 20
25.6032
 10
11.7094
 20
24.4094
 10
30.8864
 20
24.4094
  0
LWPOLYLINE
  5
28A
330
6F
100
AcDbEntity
  8
SST
100
AcDbPolyline
 90
        2
 70
     1
 43
0.1016
 10
30.8356
 20
24.4094
 42
1.0
 10
30.9372
 20
24.4094
 42
1.0
  0
LWPOLYLINE
  5
28E
330
6F
100
AcDbEntity
  8
SST
100
AcDbPolyline
 90
        2
 70
     1
 43
0.1016
 10
30.8356
 20
25.6032
 42
1.0
 10
30.9372
 20
25.6032
 42
1.0
  0
LWPOLYLINE
  5
292
330
6F
100
AcDbEntity
  8
SST
100
AcDbPolyline
 90
        2
 70
     1
 43
0.1016
 10
11.6586
 20
25.6032
 42
1.0
 10
11.7602
 20
25.6032
 42
1.0
  0
LWPOLYLINE
  5
296
330
6F
100
AcDbEntity
  8
SST
100
AcDbPolyline
 90
        2
 70
     1
 43
0.1016
 10
11.6586
 20
24.4094
 42
1.0
 10
11.7602
 20
24.4094
 42
1.0
  0
LWPOLYLINE
  5
29A
330
6F
100
AcDbEntity
  8
SST
100
AcDbPolyline
 90
        2
 70
     1
 43
0.1016
 10
30.8356
 20
24.4094
 42
1.0
 10
30.9372
 20
24.4094
 42
1.0
  0
LWPOLYLINE
  5
29E
330
6F
100
AcDbEntity
  8
SST
100
AcDbPolyline
 90
        5
 70
     1
 43
0.2032
 10
30.8864
 20
2.413
 10
30.8864
 20
3.6322
 10
11.7094
 20
3.6322
 10
11.7094
 20
2.413
 10
30.8864
 20
2.413
  0
LWPOLYLINE
  5
2A5
330
6F
100
AcDbEntity
  8
SST
100
AcDbPolyline
 90
        2
 70
     1
 43
0.1016
 10
30.8356
 20
2.413
 42
1.0
 10
30.9372
 20
2.413
 42
1.0
  0
LWPOLYLINE
  5
2A9
330
6F
100
AcDbEntity
  8
SST
100
AcDbPolyline
 90
        2
 70
     1
 43
0.1016
 10
30.8356
 20
3.6322
 42
1.0
 10
30.9372
 20
3.6322
 42
1.0
  0
LWPOLYLINE
  5
2AD
330
6F
100
AcDbEntity
  8
SST
100
AcDbPolyline
 90
        2
 70
     1
 43
0.1016
 10
11.6586
 20
3.6322
 42
1.0
 10
11.7602
 20
3.6322
 42
1.0
  0
LWPOLYLINE
  5
2B1
330
6F
100
AcDbEntity
  8
SST
100
AcDbPolyline
 90
        2
 70
     1
 43
0.1016
 10
11.6586
 20
2.413
 42
1.0
 10
11.7602
 20
2.413
 42
1.0
  0
LWPOLYLINE
  5
2B5
330
6F
100
AcDbEntity
  8
SST
100
AcDbPolyline
 90
        2
 70
     1
 43
0.1016
 10
30.8356
 20
2.413
 42
1.0
 10
30.9372
 20
2.413
 42
1.0
  0
LWPOLYLINE
  5
2B9
330
6F
100
AcDbEntity
  8
SST
100
AcDbPolyline
 90
        2
 70
     0
 43
0.2032
 10
29.2862
 20
24.4094
 10
29.2862
 20
25.6032
  0
LWPOLYLINE
  5
2BD
330
6F
100
AcDbEntity
  8
SST
100
AcDbPolyline
 90
        2
 70
     1
 43
0.1016
 10
29.2354
 20
24.4094
 42
1.0
 10
29.337
 20
24.4094
 42
1.0
  0
LWPOLYLINE
  5
2C1
330
6F
100
AcDbEntity
  8
SST
100
AcDbPolyline
 90
        2
 70
     1
 43
0.1016
 10
29.2354
 20
25.6032
 42
1.0
 10
29.337
 20
25.6032
 42
1.0
  0
LWPOLYLINE
  5
2C5
330
6F
100
AcDbEntity
  8
SST
100
AcDbPolyline
 90
        4
 70
     0
 43
0.254
 10
8.1026
 20
16.891
 10
7.4168
 20
16.891
 10
7.4168
 20
18.4912
 10
8.1026
 20
18.4912
  0
LWPOLYLINE
  5
2CB
330
6F
100
AcDbEntity
  8
SST
100
AcDbPolyline
 90
        2
 70
     1
 43
0.127
 10
8.039100000000001
 20
16.891
 42
1.0
 10
8.1661
 20
16.891
 42
1.0
  0
LWPOLYLINE
  5
2CF
330
6F
100
AcDbEntity
  8
SST
100
AcDbPolyline
 90
        2
 70
     1
 43
0.127
 10
7.353299999999999
 20
16.891
 42
1.0
 10
7.4803
 20
16.891
 42
1.0
  0
LWPOLYLINE
  5
2D3
330
6F
100
AcDbEntity
  8
SST
100
AcDbPolyline
 90
        2
 70
     1
 43
0.127
 10
7.353299999999999
 20
18.4912
 42
1.0
 10
7.4803
 20
18.4912
 42
1.0
  0
LWPOLYLINE
  5
2D7
330
6F
100
AcDbEntity
  8
SST
100
AcDbPolyline
 90
        2
 70
     1
 43
0.127
 10
8.039100000000001
 20
18.4912
 42
1.0
 10
8.1661
 20
18.4912
 42
1.0
  0
LWPOLYLINE
  5
2DB
330
6F
100
AcDbEntity
  8
SST
100
AcDbPolyline
 90
        6
 70
     0
 43
0.254
 10
11.7094
 20
16.891
 10
12.319
 20
16.891
 10
12.5222
 20
17.0942
 10
12.5222
 20
18.288
 10
12.319
 20
18.4912
 10
11.7094
 20
18.4912
  0
LWPOLYLINE
  5
2E3
330
6F
100
AcDbEntity
  8
SST
100
AcDbPolyline
 90
        2
 70
     1
 43
0.127
 10
11.6459
 20
16.891
 42
1.0
 10
11.7729
 20
16.891
 42
1.0
  0
LWPOLYLINE
  5
2E7
330
6F
100
AcDbEntity
  8
SST
100
AcDbPolyline
 90
        2
 70
     1
 43
0.127
 10
12.2555
 20
16.891
 42
1.0
 10
12.3825
 20
16.891
 42
1.0
  0
LWPOLYLINE
  5
2EB
330
6F
100
AcDbEntity
  8
SST
100
AcDbPolyline
 90
        2
 70
     1
 43
0.127
 10
12.4587
 20
17.0942
 42
1.0
 10
12.5857
 20
17.0942
 42
1.0
  0
LWPOLYLINE
  5
2EF
330
6F
100
AcDbEntity
  8
SST
100
AcDbPolyline
 90
        2
 70
     1
 43
0.127
 10
12.4587
 20
18.288
 42
1.0
 10
12.5857
 20
18.288
 42
1.0
  0
LWPOLYLINE
  5
2F3
330
6F
100
AcDbEntity
  8
SST
100
AcDbPolyline
 90
        2
 70
     1
 43
0.127
 10
12.2555
 20
18.4912
 42
1.0
 10
12.3825
 20
18.4912
 42
1.0
  0
LWPOLYLINE
  5
2F7
330
6F
100
AcDbEntity
  8
SST
100
AcDbPolyline
 90
        2
 70
     1
 43
0.127
 10
11.6459
 20
18.4912
 42
1.0
 10
11.7729
 20
18.4912
 42
1.0
  0
LWPOLYLINE
  5
2FB
330
6F
100
AcDbEntity
  8
SST
100
AcDbPolyline
 90
        2
 70
     0
 43
0.254
 10
37.6428
 20
17.8816
 10
38.4302
 20
17.8816
  0
LWPOLYLINE
  5
2FF
330
6F
100
AcDbEntity
  8
SST
100
AcDbPolyline
 90
        2
 70
     1
 43
0.127
 10
37.5793
 20
17.8816
 42
1.0
 10
37.7063
 20
17.8816
 42
1.0
  0
LWPOLYLINE
  5
303
330
6F
100
AcDbEntity
  8
SST
100
AcDbPolyline
 90
        2
 70
     1
 43
0.127
 10
38.3667
 20
17.8816
 42
1.0
 10
38.4937
 20
17.8816
 42
1.0
  0
LWPOLYLINE
  5
307
330
6F
100
AcDbEntity
  8
SST
100
AcDbPolyline
 90
        2
 70
     0
 43
0.254
 10
37.6428
 20
7.7978
 10
38.4302
 20
7.7978
  0
LWPOLYLINE
  5
30B
330
6F
100
AcDbEntity
  8
SST
100
AcDbPolyline
 90
        2
 70
     1
 43
0.127
 10
37.5793
 20
7.7978
 42
1.0
 10
37.7063
 20
7.7978
 42
1.0
  0
LWPOLYLINE
  5
30F
330
6F
100
AcDbEntity
  8
SST
100
AcDbPolyline
 90
        2
 70
     1
 43
0.127
 10
38.3667
 20
7.7978
 42
1.0
 10
38.4937
 20
7.7978
 42
1.0
  0
LWPOLYLINE
  5
313
330
6F
100
AcDbEntity
  8
SST
100
AcDbPolyline
 90
        2
 70
     0
 43
0.254
 10
37.6428
 20
11.176
 10
38.4302
 20
11.176
  0
LWPOLYLINE
  5
317
330
6F
100
AcDbEntity
  8
SST
100
AcDbPolyline
 90
        2
 70
     1
 43
0.127
 10
37.5793
 20
11.176
 42
1.0
 10
37.7063
 20
11.176
 42
1.0
  0
LWPOLYLINE
  5
31B
330
6F
100
AcDbEntity
  8
SST
100
AcDbPolyline
 90
        2
 70
     1
 43
0.127
 10
38.3667
 20
11.176
 42
1.0
 10
38.4937
 20
11.176
 42
1.0
  0
LWPOLYLINE
  5
31F
330
6F
100
AcDbEntity
  8
SST
100
AcDbPolyline
 90
        2
 70
     0
 43
0.254
 10
37.6428
 20
14.5542
 10
38.4302
 20
14.5542
  0
LWPOLYLINE
  5
323
330
6F
100
AcDbEntity
  8
SST
100
AcDbPolyline
 90
        2
 70
     1
 43
0.127
 10
37.5793
 20
14.5542
 42
1.0
 10
37.7063
 20
14.5542
 42
1.0
  0
LWPOLYLINE
  5
327
330
6F
100
AcDbEntity
  8
SST
100
AcDbPolyline
 90
        2
 70
     1
 43
0.127
 10
38.3667
 20
14.5542
 42
1.0
 10
38.4937
 20
14.5542
 42
1.0
  0
LWPOLYLINE
  5
32B
330
6F
100
AcDbEntity
  8
SST
100
AcDbPolyline
 90
        5
 70
     0
 43
0.254
 10
7.315199999999999
 20
5.6896
 10
7.315199999999999
 20
7.162799999999999
 10
7.8232
 20
7.6708
 10
9.474200000000001
 20
7.6708
 10
9.931400000000001
 20
7.238999999999999
  0
LWPOLYLINE
  5
332
330
6F
100
AcDbEntity
  8
SST
100
AcDbPolyline
 90
        2
 70
     1
 43
0.127
 10
7.251699999999999
 20
5.6896
 42
1.0
 10
7.3787
 20
5.6896
 42
1.0
  0
LWPOLYLINE
  5
336
330
6F
100
AcDbEntity
  8
SST
100
AcDbPolyline
 90
        2
 70
     1
 43
0.127
 10
7.251699999999999
 20
7.162799999999999
 42
1.0
 10
7.3787
 20
7.162799999999999
 42
1.0
  0
LWPOLYLINE
  5
33A
330
6F
100
AcDbEntity
  8
SST
100
AcDbPolyline
 90
        2
 70
     1
 43
0.127
 10
7.7597
 20
7.6708
 42
1.0
 10
7.8867
 20
7.6708
 42
1.0
  0
LWPOLYLINE
  5
33E
330
6F
100
AcDbEntity
  8
SST
100
AcDbPolyline
 90
        2
 70
     1
 43
0.127
 10
9.4107
 20
7.6708
 42
1.0
 10
9.5377
 20
7.6708
 42
1.0
  0
LWPOLYLINE
  5
342
330
6F
100
AcDbEntity
  8
SST
100
AcDbPolyline
 90
        2
 70
     1
 43
0.127
 10
9.8679
 20
7.238999999999999
 42
1.0
 10
9.994900000000001
 20
7.238999999999999
 42
1.0
  0
LWPOLYLINE
  5
346
330
6F
100
AcDbEntity
  8
SST
100
AcDbPolyline
 90
        7
 70
     0
 43
0.254
 10
30.2768
 20
7.213599999999999
 10
30.7848
 20
7.7216
 10
32.4358
 20
7.7216
 10
32.86760000000001
 20
7.2644
 10
33.3248
 20
7.7216
 10
34.8488
 20
7.7216
 10
35.3568
 20
7.213599999999999
  0
LWPOLYLINE
  5
34F
330
6F
100
AcDbEntity
  8
SST
100
AcDbPolyline
 90
        2
 70
     1
 43
0.127
 10
30.21330000000001
 20
7.213599999999999
 42
1.0
 10
30.3403
 20
7.213599999999999
 42
1.0
  0
LWPOLYLINE
  5
353
330
6F
100
AcDbEntity
  8
SST
100
AcDbPolyline
 90
        2
 70
     1
 43
0.127
 10
30.7213
 20
7.7216
 42
1.0
 10
30.8483
 20
7.7216
 42
1.0
  0
LWPOLYLINE
  5
357
330
6F
100
AcDbEntity
  8
SST
100
AcDbPolyline
 90
        2
 70
     1
 43
0.127
 10
32.3723
 20
7.7216
 42
1.0
 10
32.49930000000001
 20
7.7216
 42
1.0
  0
LWPOLYLINE
  5
35B
330
6F
100
AcDbEntity
  8
SST
100
AcDbPolyline
 90
        2
 70
     1
 43
0.127
 10
32.80410000000001
 20
7.2644
 42
1.0
 10
32.9311
 20
7.2644
 42
1.0
  0
LWPOLYLINE
  5
35F
330
6F
100
AcDbEntity
  8
SST
100
AcDbPolyline
 90
        2
 70
     1
 43
0.127
 10
33.26130000000001
 20
7.7216
 42
1.0
 10
33.3883
 20
7.7216
 42
1.0
  0
LWPOLYLINE
  5
363
330
6F
100
AcDbEntity
  8
SST
100
AcDbPolyline
 90
        2
 70
     1
 43
0.127
 10
34.7853
 20
7.7216
 42
1.0
 10
34.9123
 20
7.7216
 42
1.0
  0
LWPOLYLINE
  5
367
330
6F
100
AcDbEntity
  8
SST
100
AcDbPolyline
 90
        2
 70
     1
 43
0.127
 10
35.2933
 20
7.213599999999999
 42
1.0
 10
35.4203
 20
7.213599999999999
 42
1.0
  0
LWPOLYLINE
  5
36B
330
6F
100
AcDbEntity
  8
SST
100
AcDbPolyline
 90
        7
 70
     0
 43
0.254
 10
25.19680000000001
 20
7.213599999999999
 10
25.7048
 20
7.7216
 10
27.35580000000001
 20
7.7216
 10
27.78760000000001
 20
7.2644
 10
28.24480000000001
 20
7.7216
 10
29.7688
 20
7.7216
 10
30.2768
 20
7.213599999999999
  0
LWPOLYLINE
  5
374
330
6F
100
AcDbEntity
  8
SST
100
AcDbPolyline
 90
        2
 70
     1
 43
0.127
 10
25.1333
 20
7.213599999999999
 42
1.0
 10
25.2603
 20
7.213599999999999
 42
1.0
  0
LWPOLYLINE
  5
378
330
6F
100
AcDbEntity
  8
SST
100
AcDbPolyline
 90
        2
 70
     1
 43
0.127
 10
25.6413
 20
7.7216
 42
1.0
 10
25.7683
 20
7.7216
 42
1.0
  0
LWPOLYLINE
  5
37C
330
6F
100
AcDbEntity
  8
SST
100
AcDbPolyline
 90
        2
 70
     1
 43
0.127
 10
27.2923
 20
7.7216
 42
1.0
 10
27.4193
 20
7.7216
 42
1.0
  0
LWPOLYLINE
  5
380
330
6F
100
AcDbEntity
  8
SST
100
AcDbPolyline
 90
        2
 70
     1
 43
0.127
 10
27.7241
 20
7.2644
 42
1.0
 10
27.8511
 20
7.2644
 42
1.0
  0
LWPOLYLINE
  5
384
330
6F
100
AcDbEntity
  8
SST
100
AcDbPolyline
 90
        2
 70
     1
 43
0.127
 10
28.1813
 20
7.7216
 42
1.0
 10
28.3083
 20
7.7216
 42
1.0
  0
LWPOLYLINE
  5
388
330
6F
100
AcDbEntity
  8
SST
100
AcDbPolyline
 90
        2
 70
     1
 43
0.127
 10
29.7053
 20
7.7216
 42
1.0
 10
29.83230000000001
 20
7.7216
 42
1.0
  0
LWPOLYLINE
  5
38C
330
6F
100
AcDbEntity
  8
SST
100
AcDbPolyline
 90
        2
 70
     1
 43
0.127
 10
30.21330000000001
 20
7.213599999999999
 42
1.0
 10
30.3403
 20
7.213599999999999
 42
1.0
  0
LWPOLYLINE
  5
390
330
6F
100
AcDbEntity
  8
SST
100
AcDbPolyline
 90
        7
 70
     0
 43
0.254
 10
20.1168
 20
7.213599999999999
 10
20.6248
 20
7.7216
 10
22.2758
 20
7.7216
 10
22.7076
 20
7.2644
 10
23.1648
 20
7.7216
 10
24.6888
 20
7.7216
 10
25.19680000000001
 20
7.213599999999999
  0
LWPOLYLINE
  5
399
330
6F
100
AcDbEntity
  8
SST
100
AcDbPolyline
 90
        2
 70
     1
 43
0.127
 10
20.0533
 20
7.213599999999999
 42
1.0
 10
20.1803
 20
7.213599999999999
 42
1.0
  0
LWPOLYLINE
  5
39D
330
6F
100
AcDbEntity
  8
SST
100
AcDbPolyline
 90
        2
 70
     1
 43
0.127
 10
20.5613
 20
7.7216
 42
1.0
 10
20.6883
 20
7.7216
 42
1.0
  0
LWPOLYLINE
  5
3A1
330
6F
100
AcDbEntity
  8
SST
100
AcDbPolyline
 90
        2
 70
     1
 43
0.127
 10
22.2123
 20
7.7216
 42
1.0
 10
22.3393
 20
7.7216
 42
1.0
  0
LWPOLYLINE
  5
3A5
330
6F
100
AcDbEntity
  8
SST
100
AcDbPolyline
 90
        2
 70
     1
 43
0.127
 10
22.6441
 20
7.2644
 42
1.0
 10
22.7711
 20
7.2644
 42
1.0
  0
LWPOLYLINE
  5
3A9
330
6F
100
AcDbEntity
  8
SST
100
AcDbPolyline
 90
        2
 70
     1
 43
0.127
 10
23.1013
 20
7.7216
 42
1.0
 10
23.2283
 20
7.7216
 42
1.0
  0
LWPOLYLINE
  5
3AD
330
6F
100
AcDbEntity
  8
SST
100
AcDbPolyline
 90
        2
 70
     1
 43
0.127
 10
24.6253
 20
7.7216
 42
1.0
 10
24.7523
 20
7.7216
 42
1.0
  0
LWPOLYLINE
  5
3B1
330
6F
100
AcDbEntity
  8
SST
100
AcDbPolyline
 90
        2
 70
     1
 43
0.127
 10
25.1333
 20
7.213599999999999
 42
1.0
 10
25.2603
 20
7.213599999999999
 42
1.0
  0
LWPOLYLINE
  5
3B5
330
6F
100
AcDbEntity
  8
SST
100
AcDbPolyline
 90
        7
 70
     0
 43
0.254
 10
15.0368
 20
7.213599999999999
 10
15.5448
 20
7.7216
 10
17.1958
 20
7.7216
 10
17.6276
 20
7.2644
 10
18.0848
 20
7.7216
 10
19.6088
 20
7.7216
 10
20.1168
 20
7.213599999999999
  0
LWPOLYLINE
  5
3BE
330
6F
100
AcDbEntity
  8
SST
100
AcDbPolyline
 90
        2
 70
     1
 43
0.127
 10
14.9733
 20
7.213599999999999
 42
1.0
 10
15.1003
 20
7.213599999999999
 42
1.0
  0
LWPOLYLINE
  5
3C2
330
6F
100
AcDbEntity
  8
SST
100
AcDbPolyline
 90
        2
 70
     1
 43
0.127
 10
15.4813
 20
7.7216
 42
1.0
 10
15.6083
 20
7.7216
 42
1.0
  0
LWPOLYLINE
  5
3C6
330
6F
100
AcDbEntity
  8
SST
100
AcDbPolyline
 90
        2
 70
     1
 43
0.127
 10
17.1323
 20
7.7216
 42
1.0
 10
17.2593
 20
7.7216
 42
1.0
  0
LWPOLYLINE
  5
3CA
330
6F
100
AcDbEntity
  8
SST
100
AcDbPolyline
 90
        2
 70
     1
 43
0.127
 10
17.5641
 20
7.2644
 42
1.0
 10
17.6911
 20
7.2644
 42
1.0
  0
LWPOLYLINE
  5
3CE
330
6F
100
AcDbEntity
  8
SST
100
AcDbPolyline
 90
        2
 70
     1
 43
0.127
 10
18.0213
 20
7.7216
 42
1.0
 10
18.1483
 20
7.7216
 42
1.0
  0
LWPOLYLINE
  5
3D2
330
6F
100
AcDbEntity
  8
SST
100
AcDbPolyline
 90
        2
 70
     1
 43
0.127
 10
19.5453
 20
7.7216
 42
1.0
 10
19.6723
 20
7.7216
 42
1.0
  0
LWPOLYLINE
  5
3D6
330
6F
100
AcDbEntity
  8
SST
100
AcDbPolyline
 90
        2
 70
     1
 43
0.127
 10
20.0533
 20
7.213599999999999
 42
1.0
 10
20.1803
 20
7.213599999999999
 42
1.0
  0
LWPOLYLINE
  5
3DA
330
6F
100
AcDbEntity
  8
SST
100
AcDbPolyline
 90
        7
 70
     0
 43
0.254
 10
9.956800000000001
 20
7.213599999999999
 10
10.4648
 20
7.7216
 10
12.1158
 20
7.7216
 10
12.5476
 20
7.2644
 10
13.0048
 20
7.7216
 10
14.5288
 20
7.7216
 10
15.0368
 20
7.213599999999999
  0
LWPOLYLINE
  5
3E3
330
6F
100
AcDbEntity
  8
SST
100
AcDbPolyline
 90
        2
 70
     1
 43
0.127
 10
9.893300000000001
 20
7.213599999999999
 42
1.0
 10
10.0203
 20
7.213599999999999
 42
1.0
  0
LWPOLYLINE
  5
3E7
330
6F
100
AcDbEntity
  8
SST
100
AcDbPolyline
 90
        2
 70
     1
 43
0.127
 10
10.4013
 20
7.7216
 42
1.0
 10
10.5283
 20
7.7216
 42
1.0
  0
LWPOLYLINE
  5
3EB
330
6F
100
AcDbEntity
  8
SST
100
AcDbPolyline
 90
        2
 70
     1
 43
0.127
 10
12.0523
 20
7.7216
 42
1.0
 10
12.1793
 20
7.7216
 42
1.0
  0
LWPOLYLINE
  5
3EF
330
6F
100
AcDbEntity
  8
SST
100
AcDbPolyline
 90
        2
 70
     1
 43
0.127
 10
12.4841
 20
7.2644
 42
1.0
 10
12.6111
 20
7.2644
 42
1.0
  0
LWPOLYLINE
  5
3F3
330
6F
100
AcDbEntity
  8
SST
100
AcDbPolyline
 90
        2
 70
     1
 43
0.127
 10
12.9413
 20
7.7216
 42
1.0
 10
13.0683
 20
7.7216
 42
1.0
  0
LWPOLYLINE
  5
3F7
330
6F
100
AcDbEntity
  8
SST
100
AcDbPolyline
 90
        2
 70
     1
 43
0.127
 10
14.4653
 20
7.7216
 42
1.0
 10
14.5923
 20
7.7216
 42
1.0
  0
LWPOLYLINE
  5
3FB
330
6F
100
AcDbEntity
  8
SST
100
AcDbPolyline
 90
        2
 70
     1
 43
0.127
 10
14.9733
 20
7.213599999999999
 42
1.0
 10
15.1003
 20
7.213599999999999
 42
1.0
  0
LWPOLYLINE
  5
3FF
330
6F
100
AcDbEntity
  8
SST
100
AcDbPolyline
 90
        4
 70
     0
 43
0.254
 10
7.3406
 20
5.6134
 10
7.7978
 20
5.1816
 10
9.4488
 20
5.1816
 10
9.956800000000001
 20
5.6896
  0
LWPOLYLINE
  5
405
330
6F
100
AcDbEntity
  8
SST
100
AcDbPolyline
 90
        2
 70
     1
 43
0.127
 10
7.277099999999999
 20
5.6134
 42
1.0
 10
7.4041
 20
5.6134
 42
1.0
  0
LWPOLYLINE
  5
409
330
6F
100
AcDbEntity
  8
SST
100
AcDbPolyline
 90
        2
 70
     1
 43
0.127
 10
7.7343
 20
5.1816
 42
1.0
 10
7.8613
 20
5.1816
 42
1.0
  0
LWPOLYLINE
  5
40D
330
6F
100
AcDbEntity
  8
SST
100
AcDbPolyline
 90
        2
 70
     1
 43
0.127
 10
9.3853
 20
5.1816
 42
1.0
 10
9.512300000000001
 20
5.1816
 42
1.0
  0
LWPOLYLINE
  5
411
330
6F
100
AcDbEntity
  8
SST
100
AcDbPolyline
 90
        2
 70
     1
 43
0.127
 10
9.893300000000001
 20
5.6896
 42
1.0
 10
10.0203
 20
5.6896
 42
1.0
  0
LWPOLYLINE
  5
415
330
6F
100
AcDbEntity
  8
SST
100
AcDbPolyline
 90
        7
 70
     0
 43
0.254
 10
15.0368
 20
5.6896
 10
14.5288
 20
5.1816
 10
12.8778
 20
5.1816
 10
12.4206
 20
5.6134
 10
11.9888
 20
5.1816
 10
10.4648
 20
5.1816
 10
9.956800000000001
 20
5.6896
  0
LWPOLYLINE
  5
41E
330
6F
100
AcDbEntity
  8
SST
100
AcDbPolyline
 90
        2
 70
     1
 43
0.127
 10
14.9733
 20
5.6896
 42
1.0
 10
15.1003
 20
5.6896
 42
1.0
  0
LWPOLYLINE
  5
422
330
6F
100
AcDbEntity
  8
SST
100
AcDbPolyline
 90
        2
 70
     1
 43
0.127
 10
14.4653
 20
5.1816
 42
1.0
 10
14.5923
 20
5.1816
 42
1.0
  0
LWPOLYLINE
  5
426
330
6F
100
AcDbEntity
  8
SST
100
AcDbPolyline
 90
        2
 70
     1
 43
0.127
 10
12.8143
 20
5.1816
 42
1.0
 10
12.9413
 20
5.1816
 42
1.0
  0
LWPOLYLINE
  5
42A
330
6F
100
AcDbEntity
  8
SST
100
AcDbPolyline
 90
        2
 70
     1
 43
0.127
 10
12.3571
 20
5.6134
 42
1.0
 10
12.4841
 20
5.6134
 42
1.0
  0
LWPOLYLINE
  5
42E
330
6F
100
AcDbEntity
  8
SST
100
AcDbPolyline
 90
        2
 70
     1
 43
0.127
 10
11.9253
 20
5.1816
 42
1.0
 10
12.0523
 20
5.1816
 42
1.0
  0
LWPOLYLINE
  5
432
330
6F
100
AcDbEntity
  8
SST
100
AcDbPolyline
 90
        2
 70
     1
 43
0.127
 10
10.4013
 20
5.1816
 42
1.0
 10
10.5283
 20
5.1816
 42
1.0
  0
LWPOLYLINE
  5
436
330
6F
100
AcDbEntity
  8
SST
100
AcDbPolyline
 90
        2
 70
     1
 43
0.127
 10
9.893300000000001
 20
5.6896
 42
1.0
 10
10.0203
 20
5.6896
 42
1.0
  0
LWPOLYLINE
  5
43A
330
6F
100
AcDbEntity
  8
SST
100
AcDbPolyline
 90
        7
 70
     0
 43
0.254
 10
20.1168
 20
5.6896
 10
19.6088
 20
5.1816
 10
17.9578
 20
5.1816
 10
17.5006
 20
5.6134
 10
17.0688
 20
5.1816
 10
15.5448
 20
5.1816
 10
15.0368
 20
5.6896
  0
LWPOLYLINE
  5
443
330
6F
100
AcDbEntity
  8
SST
100
AcDbPolyline
 90
        2
 70
     1
 43
0.127
 10
20.0533
 20
5.6896
 42
1.0
 10
20.1803
 20
5.6896
 42
1.0
  0
LWPOLYLINE
  5
447
330
6F
100
AcDbEntity
  8
SST
100
AcDbPolyline
 90
        2
 70
     1
 43
0.127
 10
19.5453
 20
5.1816
 42
1.0
 10
19.6723
 20
5.1816
 42
1.0
  0
LWPOLYLINE
  5
44B
330
6F
100
AcDbEntity
  8
SST
100
AcDbPolyline
 90
        2
 70
     1
 43
0.127
 10
17.8943
 20
5.1816
 42
1.0
 10
18.0213
 20
5.1816
 42
1.0
  0
LWPOLYLINE
  5
44F
330
6F
100
AcDbEntity
  8
SST
100
AcDbPolyline
 90
        2
 70
     1
 43
0.127
 10
17.4371
 20
5.6134
 42
1.0
 10
17.5641
 20
5.6134
 42
1.0
  0
LWPOLYLINE
  5
453
330
6F
100
AcDbEntity
  8
SST
100
AcDbPolyline
 90
        2
 70
     1
 43
0.127
 10
17.0053
 20
5.1816
 42
1.0
 10
17.1323
 20
5.1816
 42
1.0
  0
LWPOLYLINE
  5
457
330
6F
100
AcDbEntity
  8
SST
100
AcDbPolyline
 90
        2
 70
     1
 43
0.127
 10
15.4813
 20
5.1816
 42
1.0
 10
15.6083
 20
5.1816
 42
1.0
  0
LWPOLYLINE
  5
45B
330
6F
100
AcDbEntity
  8
SST
100
AcDbPolyline
 90
        2
 70
     1
 43
0.127
 10
14.9733
 20
5.6896
 42
1.0
 10
15.1003
 20
5.6896
 42
1.0
  0
LWPOLYLINE
  5
45F
330
6F
100
AcDbEntity
  8
SST
100
AcDbPolyline
 90
        7
 70
     0
 43
0.254
 10
25.19680000000001
 20
5.6896
 10
24.6888
 20
5.1816
 10
23.03780000000001
 20
5.1816
 10
22.5806
 20
5.6134
 10
22.1488
 20
5.1816
 10
20.6248
 20
5.1816
 10
20.1168
 20
5.6896
  0
LWPOLYLINE
  5
468
330
6F
100
AcDbEntity
  8
SST
100
AcDbPolyline
 90
        2
 70
     1
 43
0.127
 10
25.1333
 20
5.6896
 42
1.0
 10
25.2603
 20
5.6896
 42
1.0
  0
LWPOLYLINE
  5
46C
330
6F
100
AcDbEntity
  8
SST
100
AcDbPolyline
 90
        2
 70
     1
 43
0.127
 10
24.6253
 20
5.1816
 42
1.0
 10
24.7523
 20
5.1816
 42
1.0
  0
LWPOLYLINE
  5
470
330
6F
100
AcDbEntity
  8
SST
100
AcDbPolyline
 90
        2
 70
     1
 43
0.127
 10
22.9743
 20
5.1816
 42
1.0
 10
23.1013
 20
5.1816
 42
1.0
  0
LWPOLYLINE
  5
474
330
6F
100
AcDbEntity
  8
SST
100
AcDbPolyline
 90
        2
 70
     1
 43
0.127
 10
22.5171
 20
5.6134
 42
1.0
 10
22.6441
 20
5.6134
 42
1.0
  0
LWPOLYLINE
  5
478
330
6F
100
AcDbEntity
  8
SST
100
AcDbPolyline
 90
        2
 70
     1
 43
0.127
 10
22.0853
 20
5.1816
 42
1.0
 10
22.2123
 20
5.1816
 42
1.0
  0
LWPOLYLINE
  5
47C
330
6F
100
AcDbEntity
  8
SST
100
AcDbPolyline
 90
        2
 70
     1
 43
0.127
 10
20.5613
 20
5.1816
 42
1.0
 10
20.6883
 20
5.1816
 42
1.0
  0
LWPOLYLINE
  5
480
330
6F
100
AcDbEntity
  8
SST
100
AcDbPolyline
 90
        2
 70
     1
 43
0.127
 10
20.0533
 20
5.6896
 42
1.0
 10
20.1803
 20
5.6896
 42
1.0
  0
LWPOLYLINE
  5
484
330
6F
100
AcDbEntity
  8
SST
100
AcDbPolyline
 90
        7
 70
     0
 43
0.254
 10
30.2768
 20
5.6896
 10
29.7688
 20
5.1816
 10
28.1178
 20
5.1816
 10
27.6606
 20
5.6134
 10
27.2288
 20
5.1816
 10
25.7048
 20
5.1816
 10
25.19680000000001
 20
5.6896
  0
LWPOLYLINE
  5
48D
330
6F
100
AcDbEntity
  8
SST
100
AcDbPolyline
 90
        2
 70
     1
 43
0.127
 10
30.21330000000001
 20
5.6896
 42
1.0
 10
30.3403
 20
5.6896
 42
1.0
  0
LWPOLYLINE
  5
491
330
6F
100
AcDbEntity
  8
SST
100
AcDbPolyline
 90
        2
 70
     1
 43
0.127
 10
29.7053
 20
5.1816
 42
1.0
 10
29.83230000000001
 20
5.1816
 42
1.0
  0
LWPOLYLINE
  5
495
330
6F
100
AcDbEntity
  8
SST
100
AcDbPolyline
 90
        2
 70
     1
 43
0.127
 10
28.05430000000001
 20
5.1816
 42
1.0
 10
28.1813
 20
5.1816
 42
1.0
  0
LWPOLYLINE
  5
499
330
6F
100
AcDbEntity
  8
SST
100
AcDbPolyline
 90
        2
 70
     1
 43
0.127
 10
27.5971
 20
5.6134
 42
1.0
 10
27.7241
 20
5.6134
 42
1.0
  0
LWPOLYLINE
  5
49D
330
6F
100
AcDbEntity
  8
SST
100
AcDbPolyline
 90
        2
 70
     1
 43
0.127
 10
27.1653
 20
5.1816
 42
1.0
 10
27.2923
 20
5.1816
 42
1.0
  0
LWPOLYLINE
  5
4A1
330
6F
100
AcDbEntity
  8
SST
100
AcDbPolyline
 90
        2
 70
     1
 43
0.127
 10
25.6413
 20
5.1816
 42
1.0
 10
25.7683
 20
5.1816
 42
1.0
  0
LWPOLYLINE
  5
4A5
330
6F
100
AcDbEntity
  8
SST
100
AcDbPolyline
 90
        2
 70
     1
 43
0.127
 10
25.1333
 20
5.6896
 42
1.0
 10
25.2603
 20
5.6896
 42
1.0
  0
LWPOLYLINE
  5
4A9
330
6F
100
AcDbEntity
  8
SST
100
AcDbPolyline
 90
        8
 70
     0
 43
0.254
 10
35.3568
 20
7.213599999999999
 10
35.3568
 20
5.6896
 10
34.8488
 20
5.1816
 10
33.1978
 20
5.1816
 10
32.7406
 20
5.6134
 10
32.30880000000001
 20
5.1816
 10
30.7848
 20
5.1816
 10
30.2768
 20
5.6896
  0
LWPOLYLINE
  5
4B3
330
6F
100
AcDbEntity
  8
SST
100
AcDbPolyline
 90
        2
 70
     1
 43
0.127
 10
35.2933
 20
7.213599999999999
 42
1.0
 10
35.4203
 20
7.213599999999999
 42
1.0
  0
LWPOLYLINE
  5
4B7
330
6F
100
AcDbEntity
  8
SST
100
AcDbPolyline
 90
        2
 70
     1
 43
0.127
 10
35.2933
 20
5.6896
 42
1.0
 10
35.4203
 20
5.6896
 42
1.0
  0
LWPOLYLINE
  5
4BB
330
6F
100
AcDbEntity
  8
SST
100
AcDbPolyline
 90
        2
 70
     1
 43
0.127
 10
34.7853
 20
5.1816
 42
1.0
 10
34.9123
 20
5.1816
 42
1.0
  0
LWPOLYLINE
  5
4BF
330
6F
100
AcDbEntity
  8
SST
100
AcDbPolyline
 90
        2
 70
     1
 43
0.127
 10
33.1343
 20
5.1816
 42
1.0
 10
33.26130000000001
 20
5.1816
 42
1.0
  0
LWPOLYLINE
  5
4C3
330
6F
100
AcDbEntity
  8
SST
100
AcDbPolyline
 90
        2
 70
     1
 43
0.127
 10
32.67710000000001
 20
5.6134
 42
1.0
 10
32.80410000000001
 20
5.6134
 42
1.0
  0
LWPOLYLINE
  5
4C7
330
6F
100
AcDbEntity
  8
SST
100
AcDbPolyline
 90
        2
 70
     1
 43
0.127
 10
32.24530000000001
 20
5.1816
 42
1.0
 10
32.3723
 20
5.1816
 42
1.0
  0
LWPOLYLINE
  5
4CB
330
6F
100
AcDbEntity
  8
SST
100
AcDbPolyline
 90
        2
 70
     1
 43
0.127
 10
30.7213
 20
5.1816
 42
1.0
 10
30.8483
 20
5.1816
 42
1.0
  0
LWPOLYLINE
  5
4CF
330
6F
100
AcDbEntity
  8
SST
100
AcDbPolyline
 90
        2
 70
     1
 43
0.127
 10
30.21330000000001
 20
5.6896
 42
1.0
 10
30.3403
 20
5.6896
 42
1.0
  0
LWPOLYLINE
  5
4D3
330
6F
100
AcDbEntity
  8
0
100
AcDbPolyline
 90
        6
 70
     1
 43
0.254
 10
2.641599999999999
 20
0.0
 10
0.8636000000000001
 20
0.0
 10
0.8636000000000001
 20
27.9654
 10
40.33520000000001
 20
27.9654
 10
40.33520000000001
 20
0.0
 10
2.641599999999999
 20
0.0
  0
LWPOLYLINE
  5
4DB
330
6F
100
AcDbEntity
  8
0
100
AcDbPolyline
 90
        2
 70
     1
 43
0.127
 10
2.5781
 20
0.0
 42
1.0
 10
2.7051
 20
0.0
 42
1.0
  0
LWPOLYLINE
  5
4DF
330
6F
100
AcDbEntity
  8
0
100
AcDbPolyline
 90
        2
 70
     1
 43
0.127
 10
0.8001000000000001
 20
0.0
 42
1.0
 10
0.9271
 20
0.0
 42
1.0
  0
LWPOLYLINE
  5
4E3
330
6F
100
AcDbEntity
  8
0
100
AcDbPolyline
 90
        2
 70
     1
 43
0.127
 10
0.8001000000000001
 20
27.9654
 42
1.0
 10
0.9271
 20
27.9654
 42
1.0
  0
LWPOLYLINE
  5
4E7
330
6F
100
AcDbEntity
  8
0
100
AcDbPolyline
 90
        2
 70
     1
 43
0.127
 10
40.2717
 20
27.9654
 42
1.0
 10
40.3987
 20
27.9654
 42
1.0
  0
LWPOLYLINE
  5
4EB
330
6F
100
AcDbEntity
  8
0
100
AcDbPolyline
 90
        2
 70
     1
 43
0.127
 10
40.2717
 20
0.0
 42
1.0
 10
40.3987
 20
0.0
 42
1.0
  0
LWPOLYLINE
  5
4EF
330
6F
100
AcDbEntity
  8
0
100
AcDbPolyline
 90
        2
 70
     1
 43
0.127
 10
2.5781
 20
0.0
 42
1.0
 10
2.7051
 20
0.0
 42
1.0
  0
LWPOLYLINE
  5
4F3
330
6F
100
AcDbEntity
  8
SST
100
AcDbPolyline
 90
        7
 70
     0
 43
0.254
 10
2.1844
 20
11.5316
 10
1.6764
 20
12.0396
 10
1.6764
 20
13.6906
 10
2.1336
 20
14.1224
 10
1.6764
 20
14.5796
 10
1.6764
 20
16.1036
 10
2.1844
 20
16.6116
  0
LWPOLYLINE
  5
4FC
330
6F
100
AcDbEntity
  8
SST
100
AcDbPolyline
 90
        2
 70
     1
 43
0.127
 10
2.1209
 20
11.5316
 42
1.0
 10
2.2479
 20
11.5316
 42
1.0
  0
LWPOLYLINE
  5
500
330
6F
100
AcDbEntity
  8
SST
100
AcDbPolyline
 90
        2
 70
     1
 43
0.127
 10
1.6129
 20
12.0396
 42
1.0
 10
1.7399
 20
12.0396
 42
1.0
  0
LWPOLYLINE
  5
504
330
6F
100
AcDbEntity
  8
SST
100
AcDbPolyline
 90
        2
 70
     1
 43
0.127
 10
1.6129
 20
13.6906
 42
1.0
 10
1.7399
 20
13.6906
 42
1.0
  0
LWPOLYLINE
  5
508
330
6F
100
AcDbEntity
  8
SST
100
AcDbPolyline
 90
        2
 70
     1
 43
0.127
 10
2.0701
 20
14.1224
 42
1.0
 10
2.197099999999999
 20
14.1224
 42
1.0
  0
LWPOLYLINE
  5
50C
330
6F
100
AcDbEntity
  8
SST
100
AcDbPolyline
 90
        2
 70
     1
 43
0.127
 10
1.6129
 20
14.5796
 42
1.0
 10
1.7399
 20
14.5796
 42
1.0
  0
LWPOLYLINE
  5
510
330
6F
100
AcDbEntity
  8
SST
100
AcDbPolyline
 90
        2
 70
     1
 43
0.127
 10
1.6129
 20
16.1036
 42
1.0
 10
1.7399
 20
16.1036
 42
1.0
  0
LWPOLYLINE
  5
514
330
6F
100
AcDbEntity
  8
SST
100
AcDbPolyline
 90
        2
 70
     1
 43
0.127
 10
2.1209
 20
16.6116
 42
1.0
 10
2.2479
 20
16.6116
 42
1.0
  0
LWPOLYLINE
  5
518
330
6F
100
AcDbEntity
  8
SST
100
AcDbPolyline
 90
        4
 70
     0
 43
0.1524
 10
27.6606
 20
13.6144
 10
27.78760000000001
 20
13.6144
 10
27.78760000000001
 20
14.3764
 10
28.44800000000001
 20
14.3764
  0
LWPOLYLINE
  5
51E
330
6F
100
AcDbEntity
  8
SST
100
AcDbPolyline
 90
        2
 70
     1
 43
0.0762
 10
27.6225
 20
13.6144
 42
1.0
 10
27.6987
 20
13.6144
 42
1.0
  0
LWPOLYLINE
  5
522
330
6F
100
AcDbEntity
  8
SST
100
AcDbPolyline
 90
        2
 70
     1
 43
0.0762
 10
27.7495
 20
13.6144
 42
1.0
 10
27.8257
 20
13.6144
 42
1.0
  0
LWPOLYLINE
  5
526
330
6F
100
AcDbEntity
  8
SST
100
AcDbPolyline
 90
        2
 70
     1
 43
0.0762
 10
27.7495
 20
14.3764
 42
1.0
 10
27.8257
 20
14.3764
 42
1.0
  0
LWPOLYLINE
  5
52A
330
6F
100
AcDbEntity
  8
SST
100
AcDbPolyline
 90
        2
 70
     1
 43
0.0762
 10
28.40990000000001
 20
14.3764
 42
1.0
 10
28.4861
 20
14.3764
 42
1.0
  0
LWPOLYLINE
  5
52E
330
6F
100
AcDbEntity
  8
SST
100
AcDbPolyline
 90
        8
 70
     0
 43
0.254
 10
3.7084
 20
21.6916
 10
2.1844
 20
21.6916
 10
1.6764
 20
21.1836
 10
1.6764
 20
19.6596
 10
2.1844
 20
19.1516
 10
1.6764
 20
18.6436
 10
1.6764
 20
17.1196
 10
2.1844
 20
16.6116
  0
LWPOLYLINE
  5
538
330
6F
100
AcDbEntity
  8
SST
100
AcDbPolyline
 90
        2
 70
     1
 43
0.127
 10
3.644899999999999
 20
21.6916
 42
1.0
 10
3.7719
 20
21.6916
 42
1.0
  0
LWPOLYLINE
  5
53C
330
6F
100
AcDbEntity
  8
SST
100
AcDbPolyline
 90
        2
 70
     1
 43
0.127
 10
2.1209
 20
21.6916
 42
1.0
 10
2.2479
 20
21.6916
 42
1.0
  0
LWPOLYLINE
  5
540
330
6F
100
AcDbEntity
  8
SST
100
AcDbPolyline
 90
        2
 70
     1
 43
0.127
 10
1.6129
 20
21.1836
 42
1.0
 10
1.7399
 20
21.1836
 42
1.0
  0
LWPOLYLINE
  5
544
330
6F
100
AcDbEntity
  8
SST
100
AcDbPolyline
 90
        2
 70
     1
 43
0.127
 10
1.6129
 20
19.6596
 42
1.0
 10
1.7399
 20
19.6596
 42
1.0
  0
LWPOLYLINE
  5
548
330
6F
100
AcDbEntity
  8
SST
100
AcDbPolyline
 90
        2
 70
     1
 43
0.127
 10
2.1209
 20
19.1516
 42
1.0
 10
2.2479
 20
19.1516
 42
1.0
  0
LWPOLYLINE
  5
54C
330
6F
100
AcDbEntity
  8
SST
100
AcDbPolyline
 90
        2
 70
     1
 43
0.127
 10
1.6129
 20
18.6436
 42
1.0
 10
1.7399
 20
18.6436
 42
1.0
  0
LWPOLYLINE
  5
550
330
6F
100
AcDbEntity
  8
SST
100
AcDbPolyline
 90
        2
 70
     1
 43
0.127
 10
1.6129
 20
17.1196
 42
1.0
 10
1.7399
 20
17.1196
 42
1.0
  0
LWPOLYLINE
  5
554
330
6F
100
AcDbEntity
  8
SST
100
AcDbPolyline
 90
        2
 70
     1
 43
0.127
 10
2.1209
 20
16.6116
 42
1.0
 10
2.2479
 20
16.6116
 42
1.0
  0
LWPOLYLINE
  5
558
330
6F
100
AcDbEntity
  8
SST
100
AcDbPolyline
 90
        3
 70
     0
 43
0.1524
 10
30.1752
 20
14.3764
 10
30.8356
 20
14.3764
 10
30.8356
 20
13.6144
  0
LWPOLYLINE
  5
55D
330
6F
100
AcDbEntity
  8
SST
100
AcDbPolyline
 90
        2
 70
     1
 43
0.0762
 10
30.1371
 20
14.3764
 42
1.0
 10
30.21330000000001
 20
14.3764
 42
1.0
  0
LWPOLYLINE
  5
561
330
6F
100
AcDbEntity
  8
SST
100
AcDbPolyline
 90
        2
 70
     1
 43
0.0762
 10
30.7975
 20
14.3764
 42
1.0
 10
30.8737
 20
14.3764
 42
1.0
  0
LWPOLYLINE
  5
565
330
6F
100
AcDbEntity
  8
SST
100
AcDbPolyline
 90
        2
 70
     1
 43
0.0762
 10
30.7975
 20
13.6144
 42
1.0
 10
30.8737
 20
13.6144
 42
1.0
  0
LWPOLYLINE
  5
569
330
6F
100
AcDbEntity
  8
SST
100
AcDbPolyline
 90
        5
 70
     0
 43
0.254
 10
35.4584
 20
22.4536
 10
35.4584
 20
20.955
 10
34.9504
 20
20.447
 10
33.2994
 20
20.447
 10
32.8422
 20
20.8788
  0
LWPOLYLINE
  5
570
330
6F
100
AcDbEntity
  8
SST
100
AcDbPolyline
 90
        2
 70
     1
 43
0.127
 10
35.3949
 20
22.4536
 42
1.0
 10
35.5219
 20
22.4536
 42
1.0
  0
LWPOLYLINE
  5
574
330
6F
100
AcDbEntity
  8
SST
100
AcDbPolyline
 90
        2
 70
     1
 43
0.127
 10
35.3949
 20
20.955
 42
1.0
 10
35.5219
 20
20.955
 42
1.0
  0
LWPOLYLINE
  5
578
330
6F
100
AcDbEntity
  8
SST
100
AcDbPolyline
 90
        2
 70
     1
 43
0.127
 10
34.8869
 20
20.447
 42
1.0
 10
35.01390000000001
 20
20.447
 42
1.0
  0
LWPOLYLINE
  5
57C
330
6F
100
AcDbEntity
  8
SST
100
AcDbPolyline
 90
        2
 70
     1
 43
0.127
 10
33.2359
 20
20.447
 42
1.0
 10
33.3629
 20
20.447
 42
1.0
  0
LWPOLYLINE
  5
580
330
6F
100
AcDbEntity
  8
SST
100
AcDbPolyline
 90
        2
 70
     1
 43
0.127
 10
32.7787
 20
20.8788
 42
1.0
 10
32.90570000000001
 20
20.8788
 42
1.0
  0
LWPOLYLINE
  5
584
330
6F
100
AcDbEntity
  8
SST
100
AcDbPolyline
 90
        7
 70
     0
 43
0.254
 10
12.4968
 20
20.9296
 10
11.9888
 20
20.4216
 10
10.3378
 20
20.4216
 10
9.880600000000001
 20
20.8534
 10
9.4488
 20
20.4216
 10
7.9248
 20
20.4216
 10
7.4168
 20
20.9296
  0
LWPOLYLINE
  5
58D
330
6F
100
AcDbEntity
  8
SST
100
AcDbPolyline
 90
        2
 70
     1
 43
0.127
 10
12.4333
 20
20.9296
 42
1.0
 10
12.5603
 20
20.9296
 42
1.0
  0
LWPOLYLINE
  5
591
330
6F
100
AcDbEntity
  8
SST
100
AcDbPolyline
 90
        2
 70
     1
 43
0.127
 10
11.9253
 20
20.4216
 42
1.0
 10
12.0523
 20
20.4216
 42
1.0
  0
LWPOLYLINE
  5
595
330
6F
100
AcDbEntity
  8
SST
100
AcDbPolyline
 90
        2
 70
     1
 43
0.127
 10
10.2743
 20
20.4216
 42
1.0
 10
10.4013
 20
20.4216
 42
1.0
  0
LWPOLYLINE
  5
599
330
6F
100
AcDbEntity
  8
SST
100
AcDbPolyline
 90
        2
 70
     1
 43
0.127
 10
9.817100000000001
 20
20.8534
 42
1.0
 10
9.9441
 20
20.8534
 42
1.0
  0
LWPOLYLINE
  5
59D
330
6F
100
AcDbEntity
  8
SST
100
AcDbPolyline
 90
        2
 70
     1
 43
0.127
 10
9.3853
 20
20.4216
 42
1.0
 10
9.512300000000001
 20
20.4216
 42
1.0
  0
LWPOLYLINE
  5
5A1
330
6F
100
AcDbEntity
  8
SST
100
AcDbPolyline
 90
        2
 70
     1
 43
0.127
 10
7.8613
 20
20.4216
 42
1.0
 10
7.9883
 20
20.4216
 42
1.0
  0
LWPOLYLINE
  5
5A5
330
6F
100
AcDbEntity
  8
SST
100
AcDbPolyline
 90
        2
 70
     1
 43
0.127
 10
7.353299999999999
 20
20.9296
 42
1.0
 10
7.4803
 20
20.9296
 42
1.0
  0
LWPOLYLINE
  5
5A9
330
6F
100
AcDbEntity
  8
SST
100
AcDbPolyline
 90
        7
 70
     0
 43
0.254
 10
17.5768
 20
20.9296
 10
17.0688
 20
20.4216
 10
15.4178
 20
20.4216
 10
14.9606
 20
20.8534
 10
14.5288
 20
20.4216
 10
13.0048
 20
20.4216
 10
12.4968
 20
20.9296
  0
LWPOLYLINE
  5
5B2
330
6F
100
AcDbEntity
  8
SST
100
AcDbPolyline
 90
        2
 70
     1
 43
0.127
 10
17.5133
 20
20.9296
 42
1.0
 10
17.6403
 20
20.9296
 42
1.0
  0
LWPOLYLINE
  5
5B6
330
6F
100
AcDbEntity
  8
SST
100
AcDbPolyline
 90
        2
 70
     1
 43
0.127
 10
17.0053
 20
20.4216
 42
1.0
 10
17.1323
 20
20.4216
 42
1.0
  0
LWPOLYLINE
  5
5BA
330
6F
100
AcDbEntity
  8
SST
100
AcDbPolyline
 90
        2
 70
     1
 43
0.127
 10
15.3543
 20
20.4216
 42
1.0
 10
15.4813
 20
20.4216
 42
1.0
  0
LWPOLYLINE
  5
5BE
330
6F
100
AcDbEntity
  8
SST
100
AcDbPolyline
 90
        2
 70
     1
 43
0.127
 10
14.8971
 20
20.8534
 42
1.0
 10
15.0241
 20
20.8534
 42
1.0
  0
LWPOLYLINE
  5
5C2
330
6F
100
AcDbEntity
  8
SST
100
AcDbPolyline
 90
        2
 70
     1
 43
0.127
 10
14.4653
 20
20.4216
 42
1.0
 10
14.5923
 20
20.4216
 42
1.0
  0
LWPOLYLINE
  5
5C6
330
6F
100
AcDbEntity
  8
SST
100
AcDbPolyline
 90
        2
 70
     1
 43
0.127
 10
12.9413
 20
20.4216
 42
1.0
 10
13.0683
 20
20.4216
 42
1.0
  0
LWPOLYLINE
  5
5CA
330
6F
100
AcDbEntity
  8
SST
100
AcDbPolyline
 90
        2
 70
     1
 43
0.127
 10
12.4333
 20
20.9296
 42
1.0
 10
12.5603
 20
20.9296
 42
1.0
  0
LWPOLYLINE
  5
5CE
330
6F
100
AcDbEntity
  8
SST
100
AcDbPolyline
 90
        7
 70
     0
 43
0.254
 10
22.65680000000001
 20
20.9296
 10
22.1488
 20
20.4216
 10
20.4978
 20
20.4216
 10
20.0406
 20
20.8534
 10
19.6088
 20
20.4216
 10
18.0848
 20
20.4216
 10
17.5768
 20
20.9296
  0
LWPOLYLINE
  5
5D7
330
6F
100
AcDbEntity
  8
SST
100
AcDbPolyline
 90
        2
 70
     1
 43
0.127
 10
22.5933
 20
20.9296
 42
1.0
 10
22.7203
 20
20.9296
 42
1.0
  0
LWPOLYLINE
  5
5DB
330
6F
100
AcDbEntity
  8
SST
100
AcDbPolyline
 90
        2
 70
     1
 43
0.127
 10
22.0853
 20
20.4216
 42
1.0
 10
22.2123
 20
20.4216
 42
1.0
  0
LWPOLYLINE
  5
5DF
330
6F
100
AcDbEntity
  8
SST
100
AcDbPolyline
 90
        2
 70
     1
 43
0.127
 10
20.4343
 20
20.4216
 42
1.0
 10
20.5613
 20
20.4216
 42
1.0
  0
LWPOLYLINE
  5
5E3
330
6F
100
AcDbEntity
  8
SST
100
AcDbPolyline
 90
        2
 70
     1
 43
0.127
 10
19.9771
 20
20.8534
 42
1.0
 10
20.1041
 20
20.8534
 42
1.0
  0
LWPOLYLINE
  5
5E7
330
6F
100
AcDbEntity
  8
SST
100
AcDbPolyline
 90
        2
 70
     1
 43
0.127
 10
19.5453
 20
20.4216
 42
1.0
 10
19.6723
 20
20.4216
 42
1.0
  0
LWPOLYLINE
  5
5EB
330
6F
100
AcDbEntity
  8
SST
100
AcDbPolyline
 90
        2
 70
     1
 43
0.127
 10
18.0213
 20
20.4216
 42
1.0
 10
18.1483
 20
20.4216
 42
1.0
  0
LWPOLYLINE
  5
5EF
330
6F
100
AcDbEntity
  8
SST
100
AcDbPolyline
 90
        2
 70
     1
 43
0.127
 10
17.5133
 20
20.9296
 42
1.0
 10
17.6403
 20
20.9296
 42
1.0
  0
LWPOLYLINE
  5
5F3
330
6F
100
AcDbEntity
  8
SST
100
AcDbPolyline
 90
        7
 70
     0
 43
0.254
 10
27.73680000000001
 20
20.9296
 10
27.2288
 20
20.4216
 10
25.5778
 20
20.4216
 10
25.1206
 20
20.8534
 10
24.6888
 20
20.4216
 10
23.1648
 20
20.4216
 10
22.65680000000001
 20
20.9296
  0
LWPOLYLINE
  5
5FC
330
6F
100
AcDbEntity
  8
SST
100
AcDbPolyline
 90
        2
 70
     1
 43
0.127
 10
27.6733
 20
20.9296
 42
1.0
 10
27.8003
 20
20.9296
 42
1.0
  0
LWPOLYLINE
  5
600
330
6F
100
AcDbEntity
  8
SST
100
AcDbPolyline
 90
        2
 70
     1
 43
0.127
 10
27.1653
 20
20.4216
 42
1.0
 10
27.2923
 20
20.4216
 42
1.0
  0
LWPOLYLINE
  5
604
330
6F
100
AcDbEntity
  8
SST
100
AcDbPolyline
 90
        2
 70
     1
 43
0.127
 10
25.5143
 20
20.4216
 42
1.0
 10
25.6413
 20
20.4216
 42
1.0
  0
LWPOLYLINE
  5
608
330
6F
100
AcDbEntity
  8
SST
100
AcDbPolyline
 90
        2
 70
     1
 43
0.127
 10
25.0571
 20
20.8534
 42
1.0
 10
25.18410000000001
 20
20.8534
 42
1.0
  0
LWPOLYLINE
  5
60C
330
6F
100
AcDbEntity
  8
SST
100
AcDbPolyline
 90
        2
 70
     1
 43
0.127
 10
24.6253
 20
20.4216
 42
1.0
 10
24.7523
 20
20.4216
 42
1.0
  0
LWPOLYLINE
  5
610
330
6F
100
AcDbEntity
  8
SST
100
AcDbPolyline
 90
        2
 70
     1
 43
0.127
 10
23.1013
 20
20.4216
 42
1.0
 10
23.2283
 20
20.4216
 42
1.0
  0
LWPOLYLINE
  5
614
330
6F
100
AcDbEntity
  8
SST
100
AcDbPolyline
 90
        2
 70
     1
 43
0.127
 10
22.5933
 20
20.9296
 42
1.0
 10
22.7203
 20
20.9296
 42
1.0
  0
LWPOLYLINE
  5
618
330
6F
100
AcDbEntity
  8
SST
100
AcDbPolyline
 90
        7
 70
     0
 43
0.254
 10
32.8168
 20
20.9296
 10
32.30880000000001
 20
20.4216
 10
30.65780000000001
 20
20.4216
 10
30.20060000000001
 20
20.8534
 10
29.7688
 20
20.4216
 10
28.24480000000001
 20
20.4216
 10
27.73680000000001
 20
20.9296
  0
LWPOLYLINE
  5
621
330
6F
100
AcDbEntity
  8
SST
100
AcDbPolyline
 90
        2
 70
     1
 43
0.127
 10
32.7533
 20
20.9296
 42
1.0
 10
32.88030000000001
 20
20.9296
 42
1.0
  0
LWPOLYLINE
  5
625
330
6F
100
AcDbEntity
  8
SST
100
AcDbPolyline
 90
        2
 70
     1
 43
0.127
 10
32.24530000000001
 20
20.4216
 42
1.0
 10
32.3723
 20
20.4216
 42
1.0
  0
LWPOLYLINE
  5
629
330
6F
100
AcDbEntity
  8
SST
100
AcDbPolyline
 90
        2
 70
     1
 43
0.127
 10
30.5943
 20
20.4216
 42
1.0
 10
30.7213
 20
20.4216
 42
1.0
  0
LWPOLYLINE
  5
62D
330
6F
100
AcDbEntity
  8
SST
100
AcDbPolyline
 90
        2
 70
     1
 43
0.127
 10
30.1371
 20
20.8534
 42
1.0
 10
30.2641
 20
20.8534
 42
1.0
  0
LWPOLYLINE
  5
631
330
6F
100
AcDbEntity
  8
SST
100
AcDbPolyline
 90
        2
 70
     1
 43
0.127
 10
29.7053
 20
20.4216
 42
1.0
 10
29.83230000000001
 20
20.4216
 42
1.0
  0
LWPOLYLINE
  5
635
330
6F
100
AcDbEntity
  8
SST
100
AcDbPolyline
 90
        2
 70
     1
 43
0.127
 10
28.1813
 20
20.4216
 42
1.0
 10
28.3083
 20
20.4216
 42
1.0
  0
LWPOLYLINE
  5
639
330
6F
100
AcDbEntity
  8
SST
100
AcDbPolyline
 90
        2
 70
     1
 43
0.127
 10
27.6733
 20
20.9296
 42
1.0
 10
27.8003
 20
20.9296
 42
1.0
  0
LWPOLYLINE
  5
63D
330
6F
100
AcDbEntity
  8
SST
100
AcDbPolyline
 90
        4
 70
     0
 43
0.254
 10
35.40760000000001
 20
22.5044
 10
34.9758
 20
22.9616
 10
33.3248
 20
22.9616
 10
32.8168
 20
22.4536
  0
LWPOLYLINE
  5
643
330
6F
100
AcDbEntity
  8
SST
100
AcDbPolyline
 90
        2
 70
     1
 43
0.127
 10
35.34410000000001
 20
22.5044
 42
1.0
 10
35.47110000000001
 20
22.5044
 42
1.0
  0
LWPOLYLINE
  5
647
330
6F
100
AcDbEntity
  8
SST
100
AcDbPolyline
 90
        2
 70
     1
 43
0.127
 10
34.9123
 20
22.9616
 42
1.0
 10
35.0393
 20
22.9616
 42
1.0
  0
LWPOLYLINE
  5
64B
330
6F
100
AcDbEntity
  8
SST
100
AcDbPolyline
 90
        2
 70
     1
 43
0.127
 10
33.26130000000001
 20
22.9616
 42
1.0
 10
33.3883
 20
22.9616
 42
1.0
  0
LWPOLYLINE
  5
64F
330
6F
100
AcDbEntity
  8
SST
100
AcDbPolyline
 90
        2
 70
     1
 43
0.127
 10
32.7533
 20
22.4536
 42
1.0
 10
32.88030000000001
 20
22.4536
 42
1.0
  0
LWPOLYLINE
  5
653
330
6F
100
AcDbEntity
  8
SST
100
AcDbPolyline
 90
        7
 70
     0
 43
0.254
 10
27.73680000000001
 20
22.4536
 10
28.24480000000001
 20
22.9616
 10
29.89580000000001
 20
22.9616
 10
30.3276
 20
22.5044
 10
30.7848
 20
22.9616
 10
32.30880000000001
 20
22.9616
 10
32.8168
 20
22.4536
  0
LWPOLYLINE
  5
65C
330
6F
100
AcDbEntity
  8
SST
100
AcDbPolyline
 90
        2
 70
     1
 43
0.127
 10
27.6733
 20
22.4536
 42
1.0
 10
27.8003
 20
22.4536
 42
1.0
  0
LWPOLYLINE
  5
660
330
6F
100
AcDbEntity
  8
SST
100
AcDbPolyline
 90
        2
 70
     1
 43
0.127
 10
28.1813
 20
22.9616
 42
1.0
 10
28.3083
 20
22.9616
 42
1.0
  0
LWPOLYLINE
  5
664
330
6F
100
AcDbEntity
  8
SST
100
AcDbPolyline
 90
        2
 70
     1
 43
0.127
 10
29.83230000000001
 20
22.9616
 42
1.0
 10
29.9593
 20
22.9616
 42
1.0
  0
LWPOLYLINE
  5
668
330
6F
100
AcDbEntity
  8
SST
100
AcDbPolyline
 90
        2
 70
     1
 43
0.127
 10
30.2641
 20
22.5044
 42
1.0
 10
30.3911
 20
22.5044
 42
1.0
  0
LWPOLYLINE
  5
66C
330
6F
100
AcDbEntity
  8
SST
100
AcDbPolyline
 90
        2
 70
     1
 43
0.127
 10
30.7213
 20
22.9616
 42
1.0
 10
30.8483
 20
22.9616
 42
1.0
  0
LWPOLYLINE
  5
670
330
6F
100
AcDbEntity
  8
SST
100
AcDbPolyline
 90
        2
 70
     1
 43
0.127
 10
32.24530000000001
 20
22.9616
 42
1.0
 10
32.3723
 20
22.9616
 42
1.0
  0
LWPOLYLINE
  5
674
330
6F
100
AcDbEntity
  8
SST
100
AcDbPolyline
 90
        2
 70
     1
 43
0.127
 10
32.7533
 20
22.4536
 42
1.0
 10
32.88030000000001
 20
22.4536
 42
1.0
  0
LWPOLYLINE
  5
678
330
6F
100
AcDbEntity
  8
SST
100
AcDbPolyline
 90
        7
 70
     0
 43
0.254
 10
22.65680000000001
 20
22.4536
 10
23.1648
 20
22.9616
 10
24.81580000000001
 20
22.9616
 10
25.24760000000001
 20
22.5044
 10
25.7048
 20
22.9616
 10
27.2288
 20
22.9616
 10
27.73680000000001
 20
22.4536
  0
LWPOLYLINE
  5
681
330
6F
100
AcDbEntity
  8
SST
100
AcDbPolyline
 90
        2
 70
     1
 43
0.127
 10
22.5933
 20
22.4536
 42
1.0
 10
22.7203
 20
22.4536
 42
1.0
  0
LWPOLYLINE
  5
685
330
6F
100
AcDbEntity
  8
SST
100
AcDbPolyline
 90
        2
 70
     1
 43
0.127
 10
23.1013
 20
22.9616
 42
1.0
 10
23.2283
 20
22.9616
 42
1.0
  0
LWPOLYLINE
  5
689
330
6F
100
AcDbEntity
  8
SST
100
AcDbPolyline
 90
        2
 70
     1
 43
0.127
 10
24.7523
 20
22.9616
 42
1.0
 10
24.8793
 20
22.9616
 42
1.0
  0
LWPOLYLINE
  5
68D
330
6F
100
AcDbEntity
  8
SST
100
AcDbPolyline
 90
        2
 70
     1
 43
0.127
 10
25.18410000000001
 20
22.5044
 42
1.0
 10
25.3111
 20
22.5044
 42
1.0
  0
LWPOLYLINE
  5
691
330
6F
100
AcDbEntity
  8
SST
100
AcDbPolyline
 90
        2
 70
     1
 43
0.127
 10
25.6413
 20
22.9616
 42
1.0
 10
25.7683
 20
22.9616
 42
1.0
  0
LWPOLYLINE
  5
695
330
6F
100
AcDbEntity
  8
SST
100
AcDbPolyline
 90
        2
 70
     1
 43
0.127
 10
27.1653
 20
22.9616
 42
1.0
 10
27.2923
 20
22.9616
 42
1.0
  0
LWPOLYLINE
  5
699
330
6F
100
AcDbEntity
  8
SST
100
AcDbPolyline
 90
        2
 70
     1
 43
0.127
 10
27.6733
 20
22.4536
 42
1.0
 10
27.8003
 20
22.4536
 42
1.0
  0
LWPOLYLINE
  5
69D
330
6F
100
AcDbEntity
  8
SST
100
AcDbPolyline
 90
        7
 70
     0
 43
0.254
 10
17.5768
 20
22.4536
 10
18.0848
 20
22.9616
 10
19.7358
 20
22.9616
 10
20.1676
 20
22.5044
 10
20.6248
 20
22.9616
 10
22.1488
 20
22.9616
 10
22.65680000000001
 20
22.4536
  0
LWPOLYLINE
  5
6A6
330
6F
100
AcDbEntity
  8
SST
100
AcDbPolyline
 90
        2
 70
     1
 43
0.127
 10
17.5133
 20
22.4536
 42
1.0
 10
17.6403
 20
22.4536
 42
1.0
  0
LWPOLYLINE
  5
6AA
330
6F
100
AcDbEntity
  8
SST
100
AcDbPolyline
 90
        2
 70
     1
 43
0.127
 10
18.0213
 20
22.9616
 42
1.0
 10
18.1483
 20
22.9616
 42
1.0
  0
LWPOLYLINE
  5
6AE
330
6F
100
AcDbEntity
  8
SST
100
AcDbPolyline
 90
        2
 70
     1
 43
0.127
 10
19.6723
 20
22.9616
 42
1.0
 10
19.7993
 20
22.9616
 42
1.0
  0
LWPOLYLINE
  5
6B2
330
6F
100
AcDbEntity
  8
SST
100
AcDbPolyline
 90
        2
 70
     1
 43
0.127
 10
20.1041
 20
22.5044
 42
1.0
 10
20.2311
 20
22.5044
 42
1.0
  0
LWPOLYLINE
  5
6B6
330
6F
100
AcDbEntity
  8
SST
100
AcDbPolyline
 90
        2
 70
     1
 43
0.127
 10
20.5613
 20
22.9616
 42
1.0
 10
20.6883
 20
22.9616
 42
1.0
  0
LWPOLYLINE
  5
6BA
330
6F
100
AcDbEntity
  8
SST
100
AcDbPolyline
 90
        2
 70
     1
 43
0.127
 10
22.0853
 20
22.9616
 42
1.0
 10
22.2123
 20
22.9616
 42
1.0
  0
LWPOLYLINE
  5
6BE
330
6F
100
AcDbEntity
  8
SST
100
AcDbPolyline
 90
        2
 70
     1
 43
0.127
 10
22.5933
 20
22.4536
 42
1.0
 10
22.7203
 20
22.4536
 42
1.0
  0
LWPOLYLINE
  5
6C2
330
6F
100
AcDbEntity
  8
SST
100
AcDbPolyline
 90
        7
 70
     0
 43
0.254
 10
12.4968
 20
22.4536
 10
13.0048
 20
22.9616
 10
14.6558
 20
22.9616
 10
15.0876
 20
22.5044
 10
15.5448
 20
22.9616
 10
17.0688
 20
22.9616
 10
17.5768
 20
22.4536
  0
LWPOLYLINE
  5
6CB
330
6F
100
AcDbEntity
  8
SST
100
AcDbPolyline
 90
        2
 70
     1
 43
0.127
 10
12.4333
 20
22.4536
 42
1.0
 10
12.5603
 20
22.4536
 42
1.0
  0
LWPOLYLINE
  5
6CF
330
6F
100
AcDbEntity
  8
SST
100
AcDbPolyline
 90
        2
 70
     1
 43
0.127
 10
12.9413
 20
22.9616
 42
1.0
 10
13.0683
 20
22.9616
 42
1.0
  0
LWPOLYLINE
  5
6D3
330
6F
100
AcDbEntity
  8
SST
100
AcDbPolyline
 90
        2
 70
     1
 43
0.127
 10
14.5923
 20
22.9616
 42
1.0
 10
14.7193
 20
22.9616
 42
1.0
  0
LWPOLYLINE
  5
6D7
330
6F
100
AcDbEntity
  8
SST
100
AcDbPolyline
 90
        2
 70
     1
 43
0.127
 10
15.0241
 20
22.5044
 42
1.0
 10
15.1511
 20
22.5044
 42
1.0
  0
LWPOLYLINE
  5
6DB
330
6F
100
AcDbEntity
  8
SST
100
AcDbPolyline
 90
        2
 70
     1
 43
0.127
 10
15.4813
 20
22.9616
 42
1.0
 10
15.6083
 20
22.9616
 42
1.0
  0
LWPOLYLINE
  5
6DF
330
6F
100
AcDbEntity
  8
SST
100
AcDbPolyline
 90
        2
 70
     1
 43
0.127
 10
17.0053
 20
22.9616
 42
1.0
 10
17.1323
 20
22.9616
 42
1.0
  0
LWPOLYLINE
  5
6E3
330
6F
100
AcDbEntity
  8
SST
100
AcDbPolyline
 90
        2
 70
     1
 43
0.127
 10
17.5133
 20
22.4536
 42
1.0
 10
17.6403
 20
22.4536
 42
1.0
  0
LWPOLYLINE
  5
6E7
330
6F
100
AcDbEntity
  8
SST
100
AcDbPolyline
 90
        8
 70
     0
 43
0.254
 10
7.4168
 20
20.9296
 10
7.4168
 20
22.4536
 10
7.9248
 20
22.9616
 10
9.5758
 20
22.9616
 10
10.0076
 20
22.5044
 10
10.4648
 20
22.9616
 10
11.9888
 20
22.9616
 10
12.4968
 20
22.4536
  0
LWPOLYLINE
  5
6F1
330
6F
100
AcDbEntity
  8
SST
100
AcDbPolyline
 90
        2
 70
     1
 43
0.127
 10
7.353299999999999
 20
20.9296
 42
1.0
 10
7.4803
 20
20.9296
 42
1.0
  0
LWPOLYLINE
  5
6F5
330
6F
100
AcDbEntity
  8
SST
100
AcDbPolyline
 90
        2
 70
     1
 43
0.127
 10
7.353299999999999
 20
22.4536
 42
1.0
 10
7.4803
 20
22.4536
 42
1.0
  0
LWPOLYLINE
  5
6F9
330
6F
100
AcDbEntity
  8
SST
100
AcDbPolyline
 90
        2
 70
     1
 43
0.127
 10
7.8613
 20
22.9616
 42
1.0
 10
7.9883
 20
22.9616
 42
1.0
  0
LWPOLYLINE
  5
6FD
330
6F
100
AcDbEntity
  8
SST
100
AcDbPolyline
 90
        2
 70
     1
 43
0.127
 10
9.512300000000001
 20
22.9616
 42
1.0
 10
9.6393
 20
22.9616
 42
1.0
  0
LWPOLYLINE
  5
701
330
6F
100
AcDbEntity
  8
SST
100
AcDbPolyline
 90
        2
 70
     1
 43
0.127
 10
9.9441
 20
22.5044
 42
1.0
 10
10.0711
 20
22.5044
 42
1.0
  0
LWPOLYLINE
  5
705
330
6F
100
AcDbEntity
  8
SST
100
AcDbPolyline
 90
        2
 70
     1
 43
0.127
 10
10.4013
 20
22.9616
 42
1.0
 10
10.5283
 20
22.9616
 42
1.0
  0
LWPOLYLINE
  5
709
330
6F
100
AcDbEntity
  8
SST
100
AcDbPolyline
 90
        2
 70
     1
 43
0.127
 10
11.9253
 20
22.9616
 42
1.0
 10
12.0523
 20
22.9616
 42
1.0
  0
LWPOLYLINE
  5
70D
330
6F
100
AcDbEntity
  8
SST
100
AcDbPolyline
 90
        2
 70
     1
 43
0.127
 10
12.4333
 20
22.4536
 42
1.0
 10
12.5603
 20
22.4536
 42
1.0
  0
LWPOLYLINE
  5
711
330
6F
100
AcDbEntity
  8
SST
100
AcDbPolyline
 90
        4
 70
     0
 43
0.254
 10
8.1026
 20
9.2202
 10
7.4168
 20
9.2202
 10
7.4168
 20
10.8204
 10
8.1026
 20
10.8204
  0
LWPOLYLINE
  5
717
330
6F
100
AcDbEntity
  8
SST
100
AcDbPolyline
 90
        2
 70
     1
 43
0.127
 10
8.039100000000001
 20
9.2202
 42
1.0
 10
8.1661
 20
9.2202
 42
1.0
  0
LWPOLYLINE
  5
71B
330
6F
100
AcDbEntity
  8
SST
100
AcDbPolyline
 90
        2
 70
     1
 43
0.127
 10
7.353299999999999
 20
9.2202
 42
1.0
 10
7.4803
 20
9.2202
 42
1.0
  0
LWPOLYLINE
  5
71F
330
6F
100
AcDbEntity
  8
SST
100
AcDbPolyline
 90
        2
 70
     1
 43
0.127
 10
7.353299999999999
 20
10.8204
 42
1.0
 10
7.4803
 20
10.8204
 42
1.0
  0
LWPOLYLINE
  5
723
330
6F
100
AcDbEntity
  8
SST
100
AcDbPolyline
 90
        2
 70
     1
 43
0.127
 10
8.039100000000001
 20
10.8204
 42
1.0
 10
8.1661
 20
10.8204
 42
1.0
  0
LWPOLYLINE
  5
727
330
6F
100
AcDbEntity
  8
SST
100
AcDbPolyline
 90
        6
 70
     0
 43
0.254
 10
11.7094
 20
9.2202
 10
12.319
 20
9.2202
 10
12.5222
 20
9.4234
 10
12.5222
 20
10.6172
 10
12.319
 20
10.8204
 10
11.7094
 20
10.8204
  0
LWPOLYLINE
  5
72F
330
6F
100
AcDbEntity
  8
SST
100
AcDbPolyline
 90
        2
 70
     1
 43
0.127
 10
11.6459
 20
9.2202
 42
1.0
 10
11.7729
 20
9.2202
 42
1.0
  0
LWPOLYLINE
  5
733
330
6F
100
AcDbEntity
  8
SST
100
AcDbPolyline
 90
        2
 70
     1
 43
0.127
 10
12.2555
 20
9.2202
 42
1.0
 10
12.3825
 20
9.2202
 42
1.0
  0
LWPOLYLINE
  5
737
330
6F
100
AcDbEntity
  8
SST
100
AcDbPolyline
 90
        2
 70
     1
 43
0.127
 10
12.4587
 20
9.4234
 42
1.0
 10
12.5857
 20
9.4234
 42
1.0
  0
LWPOLYLINE
  5
73B
330
6F
100
AcDbEntity
  8
SST
100
AcDbPolyline
 90
        2
 70
     1
 43
0.127
 10
12.4587
 20
10.6172
 42
1.0
 10
12.5857
 20
10.6172
 42
1.0
  0
LWPOLYLINE
  5
73F
330
6F
100
AcDbEntity
  8
SST
100
AcDbPolyline
 90
        2
 70
     1
 43
0.127
 10
12.2555
 20
10.8204
 42
1.0
 10
12.3825
 20
10.8204
 42
1.0
  0
LWPOLYLINE
  5
743
330
6F
100
AcDbEntity
  8
SST
100
AcDbPolyline
 90
        2
 70
     1
 43
0.127
 10
11.6459
 20
10.8204
 42
1.0
 10
11.7729
 20
10.8204
 42
1.0
  0
LWPOLYLINE
  5
747
330
6F
100
AcDbEntity
  8
SST
100
AcDbPolyline
 90
        5
 70
     1
 43
0.254
 10
10.9728
 20
13.1572
 10
8.89
 20
13.1572
 10
8.89
 20
14.2748
 10
10.9728
 20
14.2748
 10
10.9728
 20
13.1572
  0
LWPOLYLINE
  5
74E
330
6F
100
AcDbEntity
  8
SST
100
AcDbPolyline
 90
        2
 70
     1
 43
0.127
 10
10.9093
 20
13.1572
 42
1.0
 10
11.0363
 20
13.1572
 42
1.0
  0
LWPOLYLINE
  5
752
330
6F
100
AcDbEntity
  8
SST
100
AcDbPolyline
 90
        2
 70
     1
 43
0.127
 10
8.826499999999999
 20
13.1572
 42
1.0
 10
8.9535
 20
13.1572
 42
1.0
  0
LWPOLYLINE
  5
756
330
6F
100
AcDbEntity
  8
SST
100
AcDbPolyline
 90
        2
 70
     1
 43
0.127
 10
8.826499999999999
 20
14.2748
 42
1.0
 10
8.9535
 20
14.2748
 42
1.0
  0
LWPOLYLINE
  5
75A
330
6F
100
AcDbEntity
  8
SST
100
AcDbPolyline
 90
        2
 70
     1
 43
0.127
 10
10.9093
 20
14.2748
 42
1.0
 10
11.0363
 20
14.2748
 42
1.0
  0
LWPOLYLINE
  5
75E
330
6F
100
AcDbEntity
  8
SST
100
AcDbPolyline
 90
        2
 70
     1
 43
0.127
 10
10.9093
 20
13.1572
 42
1.0
 10
11.0363
 20
13.1572
 42
1.0
  0
LWPOLYLINE
  5
762
330
6F
100
AcDbEntity
  8
SST
100
AcDbPolyline
 90
        3
 70
     0
 43
0.1524
 10
17.399
 20
14.478
 10
18.0594
 20
14.478
 10
18.0594
 20
13.716
  0
LWPOLYLINE
  5
767
330
6F
100
AcDbEntity
  8
SST
100
AcDbPolyline
 90
        2
 70
     1
 43
0.0762
 10
17.3609
 20
14.478
 42
1.0
 10
17.4371
 20
14.478
 42
1.0
  0
LWPOLYLINE
  5
76B
330
6F
100
AcDbEntity
  8
SST
100
AcDbPolyline
 90
        2
 70
     1
 43
0.0762
 10
18.0213
 20
14.478
 42
1.0
 10
18.0975
 20
14.478
 42
1.0
  0
LWPOLYLINE
  5
76F
330
6F
100
AcDbEntity
  8
SST
100
AcDbPolyline
 90
        2
 70
     1
 43
0.0762
 10
18.0213
 20
13.716
 42
1.0
 10
18.0975
 20
13.716
 42
1.0
  0
LWPOLYLINE
  5
773
330
6F
100
AcDbEntity
  8
SST
100
AcDbPolyline
 90
        4
 70
     0
 43
0.1524
 10
14.8844
 20
13.716
 10
15.0114
 20
13.716
 10
15.0114
 20
14.478
 10
15.6718
 20
14.478
  0
LWPOLYLINE
  5
779
330
6F
100
AcDbEntity
  8
SST
100
AcDbPolyline
 90
        2
 70
     1
 43
0.0762
 10
14.8463
 20
13.716
 42
1.0
 10
14.9225
 20
13.716
 42
1.0
  0
LWPOLYLINE
  5
77D
330
6F
100
AcDbEntity
  8
SST
100
AcDbPolyline
 90
        2
 70
     1
 43
0.0762
 10
14.9733
 20
13.716
 42
1.0
 10
15.0495
 20
13.716
 42
1.0
  0
LWPOLYLINE
  5
781
330
6F
100
AcDbEntity
  8
SST
100
AcDbPolyline
 90
        2
 70
     1
 43
0.0762
 10
14.9733
 20
14.478
 42
1.0
 10
15.0495
 20
14.478
 42
1.0
  0
LWPOLYLINE
  5
785
330
6F
100
AcDbEntity
  8
SST
100
AcDbPolyline
 90
        2
 70
     1
 43
0.0762
 10
15.6337
 20
14.478
 42
1.0
 10
15.7099
 20
14.478
 42
1.0
  0
LWPOLYLINE
  5
789
330
6F
100
AcDbEntity
  8
SST
100
AcDbPolyline
 90
        7
 70
     0
 43
0.254
 10
3.7084
 20
11.5316
 10
4.2164
 20
11.0236
 10
4.2164
 20
9.3726
 10
3.7846
 20
8.915399999999999
 10
4.2164
 20
8.4836
 10
4.2164
 20
6.9596
 10
3.7084
 20
6.4516
  0
LWPOLYLINE
  5
792
330
6F
100
AcDbEntity
  8
SST
100
AcDbPolyline
 90
        2
 70
     1
 43
0.127
 10
3.644899999999999
 20
11.5316
 42
1.0
 10
3.7719
 20
11.5316
 42
1.0
  0
LWPOLYLINE
  5
796
330
6F
100
AcDbEntity
  8
SST
100
AcDbPolyline
 90
        2
 70
     1
 43
0.127
 10
4.1529
 20
11.0236
 42
1.0
 10
4.2799
 20
11.0236
 42
1.0
  0
LWPOLYLINE
  5
79A
330
6F
100
AcDbEntity
  8
SST
100
AcDbPolyline
 90
        2
 70
     1
 43
0.127
 10
4.1529
 20
9.3726
 42
1.0
 10
4.2799
 20
9.3726
 42
1.0
  0
LWPOLYLINE
  5
79E
330
6F
100
AcDbEntity
  8
SST
100
AcDbPolyline
 90
        2
 70
     1
 43
0.127
 10
3.7211
 20
8.915399999999999
 42
1.0
 10
3.8481
 20
8.915399999999999
 42
1.0
  0
LWPOLYLINE
  5
7A2
330
6F
100
AcDbEntity
  8
SST
100
AcDbPolyline
 90
        2
 70
     1
 43
0.127
 10
4.1529
 20
8.4836
 42
1.0
 10
4.2799
 20
8.4836
 42
1.0
  0
LWPOLYLINE
  5
7A6
330
6F
100
AcDbEntity
  8
SST
100
AcDbPolyline
 90
        2
 70
     1
 43
0.127
 10
4.1529
 20
6.9596
 42
1.0
 10
4.2799
 20
6.9596
 42
1.0
  0
LWPOLYLINE
  5
7AA
330
6F
100
AcDbEntity
  8
SST
100
AcDbPolyline
 90
        2
 70
     1
 43
0.127
 10
3.644899999999999
 20
6.4516
 42
1.0
 10
3.7719
 20
6.4516
 42
1.0
  0
LWPOLYLINE
  5
7AE
330
6F
100
AcDbEntity
  8
SST
100
AcDbPolyline
 90
        4
 70
     0
 43
0.1524
 10
23.79980000000001
 20
9.093199999999999
 10
23.79980000000001
 20
8.636000000000001
 10
26.3652
 20
8.636000000000001
 10
26.3652
 20
9.093199999999999
  0
LWPOLYLINE
  5
7B4
330
6F
100
AcDbEntity
  8
SST
100
AcDbPolyline
 90
        2
 70
     1
 43
0.0762
 10
23.7617
 20
9.093199999999999
 42
1.0
 10
23.8379
 20
9.093199999999999
 42
1.0
  0
LWPOLYLINE
  5
7B8
330
6F
100
AcDbEntity
  8
SST
100
AcDbPolyline
 90
        2
 70
     1
 43
0.0762
 10
23.7617
 20
8.636000000000001
 42
1.0
 10
23.8379
 20
8.636000000000001
 42
1.0
  0
LWPOLYLINE
  5
7BC
330
6F
100
AcDbEntity
  8
SST
100
AcDbPolyline
 90
        2
 70
     1
 43
0.0762
 10
26.3271
 20
8.636000000000001
 42
1.0
 10
26.4033
 20
8.636000000000001
 42
1.0
  0
LWPOLYLINE
  5
7C0
330
6F
100
AcDbEntity
  8
SST
100
AcDbPolyline
 90
        2
 70
     1
 43
0.0762
 10
26.3271
 20
9.093199999999999
 42
1.0
 10
26.4033
 20
9.093199999999999
 42
1.0
  0
LWPOLYLINE
  5
7C4
330
6F
100
AcDbEntity
  8
SST
100
AcDbPolyline
 90
        4
 70
     0
 43
0.1524
 10
26.3652
 20
9.779000000000001
 10
26.3652
 20
10.16
 10
23.79980000000001
 20
10.16
 10
23.79980000000001
 20
9.779000000000001
  0
LWPOLYLINE
  5
7CA
330
6F
100
AcDbEntity
  8
SST
100
AcDbPolyline
 90
        2
 70
     1
 43
0.0762
 10
26.3271
 20
9.779000000000001
 42
1.0
 10
26.4033
 20
9.779000000000001
 42
1.0
  0
LWPOLYLINE
  5
7CE
330
6F
100
AcDbEntity
  8
SST
100
AcDbPolyline
 90
        2
 70
     1
 43
0.0762
 10
26.3271
 20
10.16
 42
1.0
 10
26.4033
 20
10.16
 42
1.0
  0
LWPOLYLINE
  5
7D2
330
6F
100
AcDbEntity
  8
SST
100
AcDbPolyline
 90
        2
 70
     1
 43
0.0762
 10
23.7617
 20
10.16
 42
1.0
 10
23.8379
 20
10.16
 42
1.0
  0
LWPOLYLINE
  5
7D6
330
6F
100
AcDbEntity
  8
SST
100
AcDbPolyline
 90
        2
 70
     1
 43
0.0762
 10
23.7617
 20
9.779000000000001
 42
1.0
 10
23.8379
 20
9.779000000000001
 42
1.0
  0
LWPOLYLINE
  5
7DA
330
6F
100
AcDbEntity
  8
SST
100
AcDbPolyline
 90
        8
 70
     0
 43
0.254
 10
3.7084
 20
6.4516
 10
2.1844
 20
6.4516
 10
1.6764
 20
6.9596
 10
1.6764
 20
8.610600000000001
 10
2.1336
 20
9.0424
 10
1.6764
 20
9.4996
 10
1.6764
 20
11.0236
 10
2.1844
 20
11.5316
  0
LWPOLYLINE
  5
7E4
330
6F
100
AcDbEntity
  8
SST
100
AcDbPolyline
 90
        2
 70
     1
 43
0.127
 10
3.644899999999999
 20
6.4516
 42
1.0
 10
3.7719
 20
6.4516
 42
1.0
  0
LWPOLYLINE
  5
7E8
330
6F
100
AcDbEntity
  8
SST
100
AcDbPolyline
 90
        2
 70
     1
 43
0.127
 10
2.1209
 20
6.4516
 42
1.0
 10
2.2479
 20
6.4516
 42
1.0
  0
LWPOLYLINE
  5
7EC
330
6F
100
AcDbEntity
  8
SST
100
AcDbPolyline
 90
        2
 70
     1
 43
0.127
 10
1.6129
 20
6.9596
 42
1.0
 10
1.7399
 20
6.9596
 42
1.0
  0
LWPOLYLINE
  5
7F0
330
6F
100
AcDbEntity
  8
SST
100
AcDbPolyline
 90
        2
 70
     1
 43
0.127
 10
1.6129
 20
8.610600000000001
 42
1.0
 10
1.7399
 20
8.610600000000001
 42
1.0
  0
LWPOLYLINE
  5
7F4
330
6F
100
AcDbEntity
  8
SST
100
AcDbPolyline
 90
        2
 70
     1
 43
0.127
 10
2.0701
 20
9.0424
 42
1.0
 10
2.197099999999999
 20
9.0424
 42
1.0
  0
LWPOLYLINE
  5
7F8
330
6F
100
AcDbEntity
  8
SST
100
AcDbPolyline
 90
        2
 70
     1
 43
0.127
 10
1.6129
 20
9.4996
 42
1.0
 10
1.7399
 20
9.4996
 42
1.0
  0
LWPOLYLINE
  5
7FC
330
6F
100
AcDbEntity
  8
SST
100
AcDbPolyline
 90
        2
 70
     1
 43
0.127
 10
1.6129
 20
11.0236
 42
1.0
 10
1.7399
 20
11.0236
 42
1.0
  0
LWPOLYLINE
  5
800
330
6F
100
AcDbEntity
  8
SST
100
AcDbPolyline
 90
        2
 70
     1
 43
0.127
 10
2.1209
 20
11.5316
 42
1.0
 10
2.2479
 20
11.5316
 42
1.0
  0
LWPOLYLINE
  5
804
330
6F
100
AcDbEntity
  8
SST
100
AcDbPolyline
 90
        7
 70
     0
 43
0.254
 10
3.7084
 20
16.6116
 10
4.2164
 20
16.1036
 10
4.2164
 20
14.4526
 10
3.7846
 20
13.9954
 10
4.2164
 20
13.5636
 10
4.2164
 20
12.0396
 10
3.7084
 20
11.5316
  0
LWPOLYLINE
  5
80D
330
6F
100
AcDbEntity
  8
SST
100
AcDbPolyline
 90
        2
 70
     1
 43
0.127
 10
3.644899999999999
 20
16.6116
 42
1.0
 10
3.7719
 20
16.6116
 42
1.0
  0
LWPOLYLINE
  5
811
330
6F
100
AcDbEntity
  8
SST
100
AcDbPolyline
 90
        2
 70
     1
 43
0.127
 10
4.1529
 20
16.1036
 42
1.0
 10
4.2799
 20
16.1036
 42
1.0
  0
LWPOLYLINE
  5
815
330
6F
100
AcDbEntity
  8
SST
100
AcDbPolyline
 90
        2
 70
     1
 43
0.127
 10
4.1529
 20
14.4526
 42
1.0
 10
4.2799
 20
14.4526
 42
1.0
  0
LWPOLYLINE
  5
819
330
6F
100
AcDbEntity
  8
SST
100
AcDbPolyline
 90
        2
 70
     1
 43
0.127
 10
3.7211
 20
13.9954
 42
1.0
 10
3.8481
 20
13.9954
 42
1.0
  0
LWPOLYLINE
  5
81D
330
6F
100
AcDbEntity
  8
SST
100
AcDbPolyline
 90
        2
 70
     1
 43
0.127
 10
4.1529
 20
13.5636
 42
1.0
 10
4.2799
 20
13.5636
 42
1.0
  0
LWPOLYLINE
  5
821
330
6F
100
AcDbEntity
  8
SST
100
AcDbPolyline
 90
        2
 70
     1
 43
0.127
 10
4.1529
 20
12.0396
 42
1.0
 10
4.2799
 20
12.0396
 42
1.0
  0
LWPOLYLINE
  5
825
330
6F
100
AcDbEntity
  8
SST
100
AcDbPolyline
 90
        2
 70
     1
 43
0.127
 10
3.644899999999999
 20
11.5316
 42
1.0
 10
3.7719
 20
11.5316
 42
1.0
  0
LWPOLYLINE
  5
829
330
6F
100
AcDbEntity
  8
SST
100
AcDbPolyline
 90
        7
 70
     0
 43
0.254
 10
3.7084
 20
21.6916
 10
4.2164
 20
21.1836
 10
4.2164
 20
19.5326
 10
3.7846
 20
19.0754
 10
4.2164
 20
18.6436
 10
4.2164
 20
17.1196
 10
3.7084
 20
16.6116
  0
LWPOLYLINE
  5
832
330
6F
100
AcDbEntity
  8
SST
100
AcDbPolyline
 90
        2
 70
     1
 43
0.127
 10
3.644899999999999
 20
21.6916
 42
1.0
 10
3.7719
 20
21.6916
 42
1.0
  0
LWPOLYLINE
  5
836
330
6F
100
AcDbEntity
  8
SST
100
AcDbPolyline
 90
        2
 70
     1
 43
0.127
 10
4.1529
 20
21.1836
 42
1.0
 10
4.2799
 20
21.1836
 42
1.0
  0
LWPOLYLINE
  5
83A
330
6F
100
AcDbEntity
  8
SST
100
AcDbPolyline
 90
        2
 70
     1
 43
0.127
 10
4.1529
 20
19.5326
 42
1.0
 10
4.2799
 20
19.5326
 42
1.0
  0
LWPOLYLINE
  5
83E
330
6F
100
AcDbEntity
  8
SST
100
AcDbPolyline
 90
        2
 70
     1
 43
0.127
 10
3.7211
 20
19.0754
 42
1.0
 10
3.8481
 20
19.0754
 42
1.0
  0
LWPOLYLINE
  5
842
330
6F
100
AcDbEntity
  8
SST
100
AcDbPolyline
 90
        2
 70
     1
 43
0.127
 10
4.1529
 20
18.6436
 42
1.0
 10
4.2799
 20
18.6436
 42
1.0
  0
LWPOLYLINE
  5
846
330
6F
100
AcDbEntity
  8
SST
100
AcDbPolyline
 90
        2
 70
     1
 43
0.127
 10
4.1529
 20
17.1196
 42
1.0
 10
4.2799
 20
17.1196
 42
1.0
  0
LWPOLYLINE
  5
84A
330
6F
100
AcDbEntity
  8
SST
100
AcDbPolyline
 90
        2
 70
     1
 43
0.127
 10
3.644899999999999
 20
16.6116
 42
1.0
 10
3.7719
 20
16.6116
 42
1.0
  0
LWPOLYLINE
  5
84E
330
6F
100
AcDbEntity
  8
DRL
100
AcDbPolyline
 90
        2
 70
     1
 43
0.2032
 10
24.9936
 20
11.6586
 42
1.0
 10
25.19680000000001
 20
11.6586
 42
1.0
  0
LWPOLYLINE
  5
852
330
6F
100
AcDbEntity
  8
DRL
100
AcDbPolyline
 90
        2
 70
     1
 43
0.2032
 10
22.5552
 20
15.8496
 42
1.0
 10
22.7584
 20
15.8496
 42
1.0
  0
LWPOLYLINE
  5
856
330
6F
100
AcDbEntity
  8
DRL
100
AcDbPolyline
 90
        2
 70
     1
 43
0.2032
 10
36.2204
 20
10.5156
 42
1.0
 10
36.4236
 20
10.5156
 42
1.0
  0
LWPOLYLINE
  5
85A
330
6F
100
AcDbEntity
  8
DRL
100
AcDbPolyline
 90
        2
 70
     1
 43
0.2032
 10
22.6314
 20
18.4404
 42
1.0
 10
22.8346
 20
18.4404
 42
1.0
  0
LWPOLYLINE
  5
85E
330
6F
100
AcDbEntity
  8
DRL
100
AcDbPolyline
 90
        2
 70
     1
 43
0.2032
 10
18.669
 20
15.1638
 42
1.0
 10
18.8722
 20
15.1638
 42
1.0
  0
LWPOLYLINE
  5
862
330
6F
100
AcDbEntity
  8
DRL
100
AcDbPolyline
 90
        2
 70
     1
 43
0.2032
 10
35.40760000000001
 20
13.716
 42
1.0
 10
35.6108
 20
13.716
 42
1.0
  0
LWPOLYLINE
  5
866
330
6F
100
AcDbEntity
  8
DRL
100
AcDbPolyline
 90
        2
 70
     1
 43
0.2032
 10
31.31820000000001
 20
11.2776
 42
1.0
 10
31.52140000000001
 20
11.2776
 42
1.0
  0
LWPOLYLINE
  5
86A
330
6F
100
AcDbEntity
  8
DRL
100
AcDbPolyline
 90
        2
 70
     1
 43
0.2032
 10
12.4968
 20
19.5834
 42
1.0
 10
12.7
 20
19.5834
 42
1.0
  0
LWPOLYLINE
  5
86E
330
6F
100
AcDbEntity
  8
DRL
100
AcDbPolyline
 90
        2
 70
     1
 43
0.2032
 10
15.3162
 20
17.145
 42
1.0
 10
15.5194
 20
17.145
 42
1.0
  0
TEXT
  5
872
330
6F
100
AcDbEntity
  8
SST
100
AcDbText
 10
37.41420000000001
 20
8.1788
 30
0.0
 40
0.762
  1
LED2
 50
90.0
 41
0.8
100
AcDbText
  0
TEXT
  5
874
330
6F
100
AcDbEntity
  8
SST
100
AcDbText
 10
31.41980000000001
 20
12.0142
 30
0.0
 40
0.762
  1
R3
 41
0.8
100
AcDbText
  0
TEXT
  5
875
330
6F
100
AcDbEntity
  8
SST
100
AcDbText
 10
25.5016
 20
14.8336
 30
0.0
 40
0.762
  1
R10
 41
0.8
100
AcDbText
  0
TEXT
  5
876
330
6F
100
AcDbEntity
  8
SST
100
AcDbText
 10
21.2344
 20
14.7828
 30
0.0
 40
0.762
  1
R7
 41
0.8
100
AcDbText
  0
TEXT
  5
877
330
6F
100
AcDbEntity
  8
SST
100
AcDbText
 10
7.5946
 20
3.8354
 30
0.0
 40
1.016
  1
JP3
 41
0.8
100
AcDbText
  0
TEXT
  5
878
330
6F
100
AcDbEntity
  8
SST
100
AcDbText
 10
37.41420000000001
 20
11.4046
 30
0.0
 40
0.762
  1
LED3
 50
90.0
 41
0.8
100
AcDbText
  0
TEXT
  5
879
330
6F
100
AcDbEntity
  8
SST
100
AcDbText
 10
37.41420000000001
 20
18.161
 30
0.0
 40
0.762
  1
LED1
 50
90.0
 41
0.8
100
AcDbText
  0
TEXT
  5
87A
330
6F
100
AcDbEntity
  8
SST
100
AcDbText
 10
31.52140000000001
 20
16.6624
 30
0.0
 40
0.762
  1
R1
 41
0.8
100
AcDbText
  0
TEXT
  5
87B
330
6F
100
AcDbEntity
  8
SST
100
AcDbText
 10
7.7724
 20
22.9616
 30
0.0
 40
1.016
  1
JP2
 41
0.8
100
AcDbText
  0
TEXT
  5
87C
330
6F
100
AcDbEntity
  8
SST
100
AcDbText
 10
19.3294
 20
14.8082
 30
0.0
 40
0.762
  1
R6
 41
0.8
100
AcDbText
  0
TEXT
  5
87D
330
6F
100
AcDbEntity
  8
SST
100
AcDbText
 10
7.1882
 20
13.081
 30
0.0
 40
0.762
  1
U3
 41
0.8
100
AcDbText
  0
TEXT
  5
87E
330
6F
100
AcDbEntity
  8
SST
100
AcDbText
 10
16.002
 20
15.6972
 30
0.0
 40
0.762
  1
Q1
 41
0.8
100
AcDbText
  0
TEXT
  5
87F
330
6F
100
AcDbEntity
  8
SST
100
AcDbText
 10
37.3888
 20
14.7828
 30
0.0
 40
0.762
  1
LED4
 50
90.0
 41
0.8
100
AcDbText
  0
TEXT
  5
880
330
6F
100
AcDbEntity
  8
SST
100
AcDbText
 10
28.8036
 20
15.3416
 30
0.0
 40
0.762
  1
Q2
 41
0.8
100
AcDbText
  0
TEXT
  5
881
330
6F
100
AcDbEntity
  8
SST
100
AcDbText
 10
38.1762
 20
2.209799999999999
 30
0.0
 40
1.6256
  1
H4
 50
90.0
 41
0.8
100
AcDbText
  0
TEXT
  5
882
330
6F
100
AcDbEntity
  8
SST
100
AcDbText
 10
4.6736
 20
24.2062
 30
0.0
 40
1.6256
  1
H2
 50
90.0
 41
0.8
100
AcDbText
  0
TEXT
  5
883
330
6F
100
AcDbEntity
  8
SST
100
AcDbText
 10
38.1762
 20
24.2062
 30
0.0
 40
1.6256
  1
H3
 50
90.0
 41
0.8
100
AcDbText
  0
TEXT
  5
884
330
6F
100
AcDbEntity
  8
SST
100
AcDbText
 10
6.3754
 20
0.1778
 30
0.0
 40
1.27
  1
www.NEROMART.co.kr
 41
0.8
100
AcDbText
  0
TEXT
  5
885
330
6F
100
AcDbEntity
  8
SST
100
AcDbText
 10
23.5458
 20
0.2794
 30
0.0
 40
1.016
  1
MADE IN KOREA
 41
0.8
100
AcDbText
  0
TEXT
  5
886
330
6F
100
AcDbEntity
  8
SST
100
AcDbText
 10
4.6736
 20
2.209799999999999
 30
0.0
 40
1.6256
  1
H1
 50
90.0
 41
0.8
100
AcDbText
  0
TEXT
  5
887
330
6F
100
AcDbEntity
  8
SST
100
AcDbText
 10
39.6494
 20
18.4404
 30
0.0
 40
0.762
  1
PWR
 50
90.0
 41
0.8
100
AcDbText
  0
TEXT
  5
888
330
6F
100
AcDbEntity
  8
SST
100
AcDbText
 10
8.458200000000001
 20
26.0604
 30
0.0
 40
1.524
  1
NERO XBEE REGULATED
 41
0.8
100
AcDbText
  0
TEXT
  5
889
330
6F
100
AcDbEntity
  8
SST
100
AcDbText
 10
12.5222
 20
15.1638
 30
0.0
 40
0.762
  1
C2
 41
0.8
100
AcDbText
  0
TEXT
  5
88A
330
6F
100
AcDbEntity
  8
SST
100
AcDbText
 10
12.9032
 20
9.2964
 30
0.0
 40
0.762
  1
C3
 41
0.8
100
AcDbText
  0
TEXT
  5
88B
330
6F
100
AcDbEntity
  8
SST
100
AcDbText
 10
39.7002
 20
14.9352
 30
0.0
 40
0.762
  1
RSSI
 50
90.0
 41
0.8
100
AcDbText
  0
TEXT
  5
88C
330
6F
100
AcDbEntity
  8
SST
100
AcDbText
 10
39.67480000000001
 20
11.3538
 30
0.0
 40
0.762
  1
DOUT
 50
90.0
 41
0.8
100
AcDbText
  0
TEXT
  5
88D
330
6F
100
AcDbEntity
  8
SST
100
AcDbText
 10
39.67480000000001
 20
8.4074
 30
0.0
 40
0.762
  1
DIN
 50
90.0
 41
0.8
100
AcDbText
  0
TEXT
  5
88E
330
6F
100
AcDbEntity
  8
SST
100
AcDbText
 10
23.241
 20
14.8336
 30
0.0
 40
0.762
  1
R11
 41
0.8
100
AcDbText
  0
TEXT
  5
88F
330
6F
100
AcDbEntity
  8
SST
100
AcDbText
 10
2.0066
 20
5.1054
 30
0.0
 40
1.016
  1
JP1
 41
0.8
100
AcDbText
  0
TEXT
  5
890
330
6F
100
AcDbEntity
  8
SST
100
AcDbText
 10
12.954
 20
17.1704
 30
0.0
 40
0.762
  1
C1
 41
0.8
100
AcDbText
  0
TEXT
  5
891
330
6F
100
AcDbEntity
  8
SST
100
AcDbText
 10
31.41980000000001
 20
9.779000000000001
 30
0.0
 40
0.762
  1
R2
 41
0.8
100
AcDbText
  0
TEXT
  5
892
330
6F
100
AcDbEntity
  8
SST
100
AcDbText
 10
31.41980000000001
 20
14.3764
 30
0.0
 40
0.762
  1
R4
 41
0.8
100
AcDbText
  0
TEXT
  5
893
330
6F
100
AcDbEntity
  8
SST
100
AcDbText
 10
4.546599999999999
 20
9.652000000000001
 30
0.0
 40
1.016
  1
DIN
 41
0.8
100
AcDbText
  0
TEXT
  5
894
330
6F
100
AcDbEntity
  8
SST
100
AcDbText
 10
4.4958
 20
7.1882
 30
0.0
 40
1.016
  1
DIO3
 41
0.8
100
AcDbText
  0
TEXT
  5
895
330
6F
100
AcDbEntity
  8
SST
100
AcDbText
 10
4.546599999999999
 20
12.2174
 30
0.0
 40
1.016
  1
DOUT
 41
0.8
100
AcDbText
  0
TEXT
  5
896
330
6F
100
AcDbEntity
  8
SST
100
AcDbText
 10
4.572
 20
14.6812
 30
0.0
 40
1.016
  1
5V
 41
0.8
100
AcDbText
  0
TEXT
  5
897
330
6F
100
AcDbEntity
  8
SST
100
AcDbText
 10
4.5212
 20
17.2974
 30
0.0
 40
1.016
  1
GND
 41
0.8
100
AcDbText
  0
TEXT
  5
898
330
6F
100
AcDbEntity
  8
SST
100
AcDbText
 10
4.572
 20
19.8628
 30
0.0
 40
1.016
  1
GND
 41
0.8
100
AcDbText
  0
ENDSEC
  0
SECTION
  2
OBJECTS
  0
DICTIONARY
  5
C
330
0
100
AcDbDictionary
281
     1
  3
ACAD_CIP_PREVIOUS_PRODUCT_INFO
350
89C
  3
ACAD_COLOR
350
62
  3
ACAD_DETAILVIEWSTYLE
350
69
  3
ACAD_GROUP
350
D
  3
ACAD_LAYOUT
350
61
  3
ACAD_MATERIAL
350
10
  3
ACAD_MLEADERSTYLE
350
65
  3
ACAD_MLINESTYLE
350
5E
  3
ACAD_PLOTSETTINGS
350
60
  3
ACAD_PLOTSTYLENAME
350
E
  3
ACAD_SCALELIST
350
42
  3
ACAD_SECTIONVIEWSTYLE
350
67
  3
ACAD_TABLESTYLE
350
63
  3
ACAD_VISUALSTYLE
350
29
  3
ACDB_RECOMPOSE_DATA
350
93D
  3
AcDbVariableDictionary
350
931
  3
AEC_VARS
350
901
  0
XRECORD
  5
89C
102
{ACAD_REACTORS
330
C
102
}
330
C
100
AcDbXrecord
280
     1
300
ACD
300
2019
300
ACD_F_S
  0
DICTIONARY
  5
62
102
{ACAD_REACTORS
330
C
102
}
330
C
100
AcDbDictionary
281
     1
  0
DICTIONARY
  5
69
102
{ACAD_REACTORS
330
C
102
}
330
C
100
AcDbDictionary
281
     1
  3
Imperial24
350
6A
  0
DICTIONARY
  5
D
102
{ACAD_REACTORS
330
C
102
}
330
C
100
AcDbDictionary
281
     1
  0
DICTIONARY
  5
61
102
{ACAD_REACTORS
330
C
102
}
330
C
100
AcDbDictionary
281
     1
  3
Model
350
72
  3
배치1
350
6E
  0
DICTIONARY
  5
10
102
{ACAD_REACTORS
330
C
102
}
330
C
100
AcDbDictionary
281
     1
  3
ByBlock
350
19
  3
ByLayer
350
11
  3
Global
350
21
  0
DICTIONARY
  5
65
102
{ACAD_REACTORS
330
C
102
}
330
C
100
AcDbDictionary
281
     1
  3
Standard
350
66
  0
DICTIONARY
  5
5E
102
{ACAD_REACTORS
330
C
102
}
330
C
100
AcDbDictionary
281
     1
  3
Standard
350
5F
  0
DICTIONARY
  5
60
102
{ACAD_REACTORS
330
C
102
}
330
C
100
AcDbDictionary
281
     1
  0
ACDBDICTIONARYWDFLT
  5
E
102
{ACAD_REACTORS
330
C
102
}
330
C
100
AcDbDictionary
281
     1
  3
Normal
350
F
100
AcDbDictionaryWithDefault
340
F
  0
DICTIONARY
  5
42
102
{ACAD_REACTORS
330
C
102
}
330
C
100
AcDbDictionary
281
     1
  3
A0
350
43
  3
A1
350
44
  3
A2
350
45
  3
A3
350
46
  3
A4
350
47
  3
A5
350
48
  3
A6
350
49
  3
A7
350
4A
  3
A8
350
4B
  3
A9
350
4C
  3
B0
350
4D
  3
B1
350
4E
  3
B2
350
4F
  3
B3
350
50
  3
B4
350
51
  3
B5
350
52
  3
B6
350
53
  0
DICTIONARY
  5
67
102
{ACAD_REACTORS
330
C
102
}
330
C
100
AcDbDictionary
281
     1
  3
Imperial24
350
68
  0
DICTIONARY
  5
63
102
{ACAD_REACTORS
330
C
102
}
330
C
100
AcDbDictionary
281
     1
  3
Standard
350
64
  0
DICTIONARY
  5
29
102
{ACAD_REACTORS
330
C
102
}
330
C
100
AcDbDictionary
281
     1
  3
2dWireframe
350
2F
  3
Basic
350
2E
  3
Brighten
350
35
  3
ColorChange
350
39
  3
Conceptual
350
32
  3
Dim
350
34
  3
EdgeColorOff
350
41
  3
Facepattern
350
38
  3
Flat
350
2A
  3
FlatWithEdges
350
2B
  3
Gouraud
350
2C
  3
GouraudWithEdges
350
2D
  3
Hidden
350
31
  3
JitterOff
350
3F
  3
Linepattern
350
37
  3
OverhangOff
350
40
  3
Realistic
350
33
  3
Shaded
350
3E
  3
Shaded with edges
350
3D
  3
Shades of Gray
350
3A
  3
Sketchy
350
3B
  3
Thicken
350
36
  3
Wireframe
350
30
  3
X-Ray
350
3C
  0
XRECORD
  5
93D
102
{ACAD_REACTORS
330
C
102
}
330
C
100
AcDbXrecord
280
     1
 90
        1
330
64
  0
DICTIONARY
  5
931
102
{ACAD_REACTORS
330
C
102
}
330
C
100
AcDbDictionary
281
     1
  3
CANNOSCALE
350
937
  3
CMLEADERSTYLE
350
933
  3
CTABLESTYLE
350
932
  3
CVIEWDETAILSTYLE
350
934
  3
CVIEWSECTIONSTYLE
350
935
  3
LAYEREVAL
350
939
  3
LAYERNOTIFY
350
93A
  3
LIGHTINGUNITS
350
938
  3
MSLTSCALE
350
936
  0
DICTIONARY
  5
901
102
{ACAD_REACTORS
330
C
102
}
330
C
100
AcDbDictionary
281
     1
  3
AEC_VARS_DWG_SETUP
350
902
  0
ACDBDETAILVIEWSTYLE
  5
6A
102
{ACAD_REACTORS
330
69
102
}
330
69
100
AcDbModelDocViewStyle
 70
     0
  3
Imperial24
290
     0
300
Imperial24
 90
        0
100
AcDbDetailViewStyle
 70
     0
 71
     0
 90
        3
 71
     1
340
55
 62
   256
 40
0.24
340
0
 62
   256
 40
0.24
300

 40
0.36
280
     3
 71
     2
340
5C
 90
       25
 62
   256
 71
     3
340
55
 62
   256
 40
0.24
 90
        1
 40
0.75
 90
        1
300
%<\AcVar ViewType \f "%tc1">% %<\AcVar ViewDetailId>%\PSCALE %<\AcVar ViewScale \f "%sn">%
 71
     4
340
5C
 90
       25
 62
   256
340
5C
 90
       25
 62
   256
280
     0
  0
LAYOUT
  5
72
102
{ACAD_REACTORS
330
61
102
}
330
61
100
AcDbPlotSettings
  1

  2
HP Color LaserJet Pro MFP M477 PCL 6
  4

  6

 40
0.0
 41
0.0
 42
0.0
 43
0.0
 44
0.0
 45
0.0
 46
0.0
 47
0.0
 48
0.0
 49
0.0
140
0.0
141
0.0
142
1.0
143
1.0
 70
  1712
 72
     0
 73
     0
 74
     0
  7

 75
     0
147
1.0
 76
     0
 77
     2
 78
   300
148
0.0
149
0.0
100
AcDbLayout
  1
Model
 70
     1
 71
     0
 10
0.0
 20
0.0
 11
12.0
 21
9.0
 12
0.0
 22
0.0
 32
0.0
 14
0.0
 24
0.0
 34
0.0
 15
0.0
 25
0.0
 35
0.0
146
0.0
 13
0.0
 23
0.0
 33
0.0
 16
1.0
 26
0.0
 36
0.0
 17
0.0
 27
1.0
 37
0.0
 76
     0
330
6F
331
89B
  0
LAYOUT
  5
6E
102
{ACAD_REACTORS
330
61
102
}
330
61
100
AcDbPlotSettings
  1

  2
HP Color LaserJet Pro MFP M477 PCL 6
  4

  6

 40
0.0
 41
0.0
 42
0.0
 43
0.0
 44
0.0
 45
0.0
 46
0.0
 47
0.0
 48
0.0
 49
0.0
140
0.0
141
0.0
142
1.0
143
1.0
 70
   688
 72
     0
 73
     0
 74
     5
  7

 75
    16
147
1.0
 76
     0
 77
     2
 78
   300
148
0.0
149
0.0
100
AcDbLayout
  1
배치1
 70
     1
 71
     1
 10
0.0
 20
0.0
 11
12.0
 21
9.0
 12
0.0
 22
0.0
 32
0.0
 14
1.000000000000000E+20
 24
1.000000000000000E+20
 34
1.000000000000000E+20
 15
-1.000000000000000E+20
 25
-1.000000000000000E+20
 35
-1.000000000000000E+20
146
0.0
 13
0.0
 23
0.0
 33
0.0
 16
1.0
 26
0.0
 36
0.0
 17
0.0
 27
1.0
 37
0.0
 76
     0
330
6B
  0
MATERIAL
  5
19
102
{ACAD_XDICTIONARY
360
1A
102
}
102
{ACAD_REACTORS
330
10
102
}
330
10
100
AcDbMaterial
  1
ByBlock
 72
     0
 43
0.0008202099737533
 43
0.0
 43
0.0
 43
0.0
 43
0.0
 43
0.0008202099737533
 43
0.0
 43
0.0
 43
0.0
 43
0.0
 43
0.0393700787401575
 43
0.0
 43
0.0
 43
0.0
 43
0.0
 43
1.0
 77
     0
 47
0.0208333333333333
 47
0.0
 47
0.0
 47
0.0
 47
0.0
 47
0.0208333333333333
 47
0.0
 47
0.0
 47
0.0
 47
0.0
 47
1.0
 47
0.0
 47
0.0
 47
0.0
 47
0.0
 47
1.0
171
     0
 49
0.0208333333333333
 49
0.0
 49
0.0
 49
0.0
 49
0.0
 49
0.0208333333333333
 49
0.0
 49
0.0
 49
0.0
 49
0.0
 49
1.0
 49
0.0
 49
0.0
 49
0.0
 49
0.0
 49
1.0
175
     0
142
0.0208333333333333
142
0.0
142
0.0
142
0.0
142
0.0
142
0.0208333333333333
142
0.0
142
0.0
142
0.0
142
0.0
142
1.0
142
0.0
142
0.0
142
0.0
142
0.0
142
1.0
179
     0
144
0.0208333333333333
144
0.0
144
0.0
144
0.0
144
0.0
144
0.0208333333333333
144
0.0
144
0.0
144
0.0
144
0.0
144
1.0
144
0.0
144
0.0
144
0.0
144
0.0
144
1.0
147
0.0208333333333333
147
0.0
147
0.0
147
0.0
147
0.0
147
0.0208333333333333
147
0.0
147
0.0
147
0.0
147
0.0
147
1.0
147
0.0
147
0.0
147
0.0
147
0.0
147
1.0
  0
MATERIAL
  5
11
102
{ACAD_XDICTIONARY
360
12
102
}
102
{ACAD_REACTORS
330
10
102
}
330
10
100
AcDbMaterial
  1
ByLayer
 72
     0
 43
0.0008202099737533
 43
0.0
 43
0.0
 43
0.0
 43
0.0
 43
0.0008202099737533
 43
0.0
 43
0.0
 43
0.0
 43
0.0
 43
0.0393700787401575
 43
0.0
 43
0.0
 43
0.0
 43
0.0
 43
1.0
 77
     0
 47
0.0208333333333333
 47
0.0
 47
0.0
 47
0.0
 47
0.0
 47
0.0208333333333333
 47
0.0
 47
0.0
 47
0.0
 47
0.0
 47
1.0
 47
0.0
 47
0.0
 47
0.0
 47
0.0
 47
1.0
171
     0
 49
0.0208333333333333
 49
0.0
 49
0.0
 49
0.0
 49
0.0
 49
0.0208333333333333
 49
0.0
 49
0.0
 49
0.0
 49
0.0
 49
1.0
 49
0.0
 49
0.0
 49
0.0
 49
0.0
 49
1.0
175
     0
142
0.0208333333333333
142
0.0
142
0.0
142
0.0
142
0.0
142
0.0208333333333333
142
0.0
142
0.0
142
0.0
142
0.0
142
1.0
142
0.0
142
0.0
142
0.0
142
0.0
142
1.0
179
     0
144
0.0208333333333333
144
0.0
144
0.0
144
0.0
144
0.0
144
0.0208333333333333
144
0.0
144
0.0
144
0.0
144
0.0
144
1.0
144
0.0
144
0.0
144
0.0
144
0.0
144
1.0
147
0.0208333333333333
147
0.0
147
0.0
147
0.0
147
0.0
147
0.0208333333333333
147
0.0
147
0.0
147
0.0
147
0.0
147
1.0
147
0.0
147
0.0
147
0.0
147
0.0
147
1.0
  0
MATERIAL
  5
21
102
{ACAD_XDICTIONARY
360
22
102
}
102
{ACAD_REACTORS
330
10
102
}
330
10
100
AcDbMaterial
  1
Global
 72
     0
 43
0.0008202099737533
 43
0.0
 43
0.0
 43
0.0
 43
0.0
 43
0.0008202099737533
 43
0.0
 43
0.0
 43
0.0
 43
0.0
 43
0.0393700787401575
 43
0.0
 43
0.0
 43
0.0
 43
0.0
 43
1.0
 77
     0
 47
0.0208333333333333
 47
0.0
 47
0.0
 47
0.0
 47
0.0
 47
0.0208333333333333
 47
0.0
 47
0.0
 47
0.0
 47
0.0
 47
1.0
 47
0.0
 47
0.0
 47
0.0
 47
0.0
 47
1.0
171
     0
 49
0.0208333333333333
 49
0.0
 49
0.0
 49
0.0
 49
0.0
 49
0.0208333333333333
 49
0.0
 49
0.0
 49
0.0
 49
0.0
 49
1.0
 49
0.0
 49
0.0
 49
0.0
 49
0.0
 49
1.0
175
     0
142
0.0208333333333333
142
0.0
142
0.0
142
0.0
142
0.0
142
0.0208333333333333
142
0.0
142
0.0
142
0.0
142
0.0
142
1.0
142
0.0
142
0.0
142
0.0
142
0.0
142
1.0
179
     0
144
0.0208333333333333
144
0.0
144
0.0
144
0.0
144
0.0
144
0.0208333333333333
144
0.0
144
0.0
144
0.0
144
0.0
144
1.0
144
0.0
144
0.0
144
0.0
144
0.0
144
1.0
147
0.0208333333333333
147
0.0
147
0.0
147
0.0
147
0.0
147
0.0208333333333333
147
0.0
147
0.0
147
0.0
147
0.0
147
1.0
147
0.0
147
0.0
147
0.0
147
0.0
147
1.0
  0
MLEADERSTYLE
  5
66
102
{ACAD_REACTORS
330
65
102
}
330
65
100
AcDbMLeaderStyle
179
     2
170
     2
171
     1
172
     0
 90
        2
 40
0.0
 41
0.0
173
     1
 91
-1056964608
340
5A
 92
       -2
290
     1
 42
0.09
291
     1
 43
0.36
  3
Standard
 44
0.18
300

342
55
174
     1
178
     6
175
     1
176
     0
 93
-1056964608
 45
0.18
292
     0
297
     0
 46
0.18
 94
-1056964608
 47
1.0
 49
1.0
140
1.0
293
     1
141
0.0
294
     1
177
     0
142
1.0
295
     0
296
     0
143
0.125
271
     0
272
     9
273
     9
298
     0
  0
MLINESTYLE
  5
5F
102
{ACAD_REACTORS
330
5E
102
}
330
5E
100
AcDbMlineStyle
  2
STANDARD
 70
     0
  3

 62
   256
 51
90.0
 52
90.0
 71
     2
 49
0.5
 62
   256
  6
BYLAYER
 49
-0.5
 62
   256
  6
BYLAYER
  0
ACDBPLACEHOLDER
  5
F
102
{ACAD_REACTORS
330
E
102
}
330
E
  0
SCALE
  5
43
102
{ACAD_REACTORS
330
42
102
}
330
42
100
AcDbScale
 70
     0
300
1:1
140
1.0
141
1.0
290
     1
  0
SCALE
  5
44
102
{ACAD_REACTORS
330
42
102
}
330
42
100
AcDbScale
 70
     0
300
1/128" = 1'-0"
140
0.0078125
141
12.0
290
     0
  0
SCALE
  5
45
102
{ACAD_REACTORS
330
42
102
}
330
42
100
AcDbScale
 70
     0
300
1/64" = 1'-0"
140
0.015625
141
12.0
290
     0
  0
SCALE
  5
46
102
{ACAD_REACTORS
330
42
102
}
330
42
100
AcDbScale
 70
     0
300
1/32" = 1'-0"
140
0.03125
141
12.0
290
     0
  0
SCALE
  5
47
102
{ACAD_REACTORS
330
42
102
}
330
42
100
AcDbScale
 70
     0
300
1/16" = 1'-0"
140
0.0625
141
12.0
290
     0
  0
SCALE
  5
48
102
{ACAD_REACTORS
330
42
102
}
330
42
100
AcDbScale
 70
     0
300
3/32" = 1'-0"
140
0.09375
141
12.0
290
     0
  0
SCALE
  5
49
102
{ACAD_REACTORS
330
42
102
}
330
42
100
AcDbScale
 70
     0
300
1/8" = 1'-0"
140
0.125
141
12.0
290
     0
  0
SCALE
  5
4A
102
{ACAD_REACTORS
330
42
102
}
330
42
100
AcDbScale
 70
     0
300
3/16" = 1'-0"
140
0.1875
141
12.0
290
     0
  0
SCALE
  5
4B
102
{ACAD_REACTORS
330
42
102
}
330
42
100
AcDbScale
 70
     0
300
1/4" = 1'-0"
140
0.25
141
12.0
290
     0
  0
SCALE
  5
4C
102
{ACAD_REACTORS
330
42
102
}
330
42
100
AcDbScale
 70
     0
300
3/8" = 1'-0"
140
0.375
141
12.0
290
     0
  0
SCALE
  5
4D
102
{ACAD_REACTORS
330
42
102
}
330
42
100
AcDbScale
 70
     0
300
1/2" = 1'-0"
140
0.5
141
12.0
290
     0
  0
SCALE
  5
4E
102
{ACAD_REACTORS
330
42
102
}
330
42
100
AcDbScale
 70
     0
300
3/4" = 1'-0"
140
0.75
141
12.0
290
     0
  0
SCALE
  5
4F
102
{ACAD_REACTORS
330
42
102
}
330
42
100
AcDbScale
 70
     0
300
1" = 1'-0"
140
1.0
141
12.0
290
     0
  0
SCALE
  5
50
102
{ACAD_REACTORS
330
42
102
}
330
42
100
AcDbScale
 70
     0
300
1-1/2" = 1'-0"
140
1.5
141
12.0
290
     0
  0
SCALE
  5
51
102
{ACAD_REACTORS
330
42
102
}
330
42
100
AcDbScale
 70
     0
300
3" = 1'-0"
140
3.0
141
12.0
290
     0
  0
SCALE
  5
52
102
{ACAD_REACTORS
330
42
102
}
330
42
100
AcDbScale
 70
     0
300
6" = 1'-0"
140
6.0
141
12.0
290
     0
  0
SCALE
  5
53
102
{ACAD_REACTORS
330
42
102
}
330
42
100
AcDbScale
 70
     0
300
1'-0" = 1'-0"
140
12.0
141
12.0
290
     0
  0
ACDBSECTIONVIEWSTYLE
  5
68
102
{ACAD_REACTORS
330
67
102
}
330
67
100
AcDbModelDocViewStyle
 70
     0
  3
Imperial24
290
     0
300
Imperial24
 90
        0
100
AcDbSectionViewStyle
 70
     0
 71
     0
 90
       78
 71
     1
340
55
 62
   256
 40
0.24
340
0
340
0
 62
   256
 40
0.24
300
I, O, Q, S, X, Z
 40
0.48
 90
        3
 40
0.18
 90
        1
 71
     2
340
5C
 90
       25
 62
   256
340
5C
 90
       50
 62
   256
 40
0.24
 40
0.0
 40
0.24
 71
     3
340
55
 62
   256
 40
0.24
 90
        1
 40
0.75
 90
        1
300
%<\AcVar ViewType \f "%tc1">% %<\AcVar ViewSectionStartId>%-%<\AcVar ViewSectionEndId>%\PSCALE %<\AcVar ViewScale \f "%sn">%
 71
     4
 62
   256
 62
   257
300
ANSI31
 40
1.0
 90
        0
290
     0
290
     0
 90
        6
 40
0.0
 40
1.570796326794896
 40
0.2617993877991494
 40
1.308996938995747
 40
-0.2617993877991494
 40
1.832595714594046
  0
TABLESTYLE
  5
64
102
{ACAD_XDICTIONARY
360
93B
102
}
102
{ACAD_REACTORS
330
63
102
}
330
63
100
AcDbTableStyle
280
     0
  3
Standard
 70
     0
 71
     0
 40
1.523999999999999
 41
1.523999999999999
280
     0
281
     0
  7
Standard
140
4.571999999999999
170
     2
 62
     0
 63
     7
283
     0
 90
      512
 91
        0
  1

274
    -2
284
     1
 64
     0
275
    -2
285
     1
 65
     0
276
    -2
286
     1
 66
     0
277
    -2
287
     1
 67
     0
278
    -2
288
     1
 68
     0
279
    -2
289
     1
 69
     0
  7
Standard
140
6.349999999999999
170
     5
 62
     0
 63
     7
283
     0
 90
      512
 91
        0
  1

274
    -2
284
     1
 64
     0
275
    -2
285
     1
 65
     0
276
    -2
286
     1
 66
     0
277
    -2
287
     1
 67
     0
278
    -2
288
     1
 68
     0
279
    -2
289
     1
 69
     0
  7
Standard
140
4.571999999999999
170
     5
 62
     0
 63
     7
283
     0
 90
      512
 91
        0
  1

274
    -2
284
     1
 64
     0
275
    -2
285
     1
 65
     0
276
    -2
286
     1
 66
     0
277
    -2
287
     1
 67
     0
278
    -2
288
     1
 68
     0
279
    -2
289
     1
 69
     0
  0
VISUALSTYLE
  5
2F
102
{ACAD_REACTORS
330
29
102
}
330
29
100
AcDbVisualStyle
  2
2dWireframe
 70
     4
177
     3
291
     0
 70
    58
 90
        0
176
     1
 90
        2
176
     1
 90
        0
176
     1
 90
        0
176
     1
 40
0.6
176
     1
 40
30.0
176
     1
 62
     7
420
 16777215
176
     1
 90
        1
176
     1
 90
        4
176
     1
 62
     7
176
     1
 62
   257
176
     1
 90
        1
176
     1
 90
        1
176
     1
 40
1.0
176
     1
 90
        0
176
     1
 62
   257
176
     1
 40
1.0
176
     1
 90
        1
176
     1
 90
        6
176
     1
 90
        2
176
     1
 62
     7
176
     1
 90
        5
176
     1
 90
        0
176
     1
 90
        0
176
     1
290
     0
176
     1
 90
        1
176
     1
 40
0.0
176
     1
 90
        0
176
     1
290
     1
176
     1
290
     1
176
     1
290
     0
176
     1
290
     0
176
     1
290
     0
176
     1
290
     0
176
     1
290
     0
176
     1
290
     0
176
     1
290
     0
176
     1
 90
       50
176
     1
 40
0.0
176
     1
 40
1.0
176
     1
 90
        0
176
     1
 62
    18
420
        0
176
     1
 90
       50
176
     1
 90
        3
176
     1
 62
     5
420
      255
176
     1
290
     0
176
     1
 90
       50
176
     1
 90
       50
176
     1
 90
       50
176
     1
290
     0
176
     1
 90
       50
176
     1
 62
   256
176
     0
 40
1.0
176
     0
 90
        2
176
     1
  1
strokes_ogs.tif
176
     1
290
     0
176
     1
 40
1.0
176
     1
 40
1.0
176
     1
  0
VISUALSTYLE
  5
2E
102
{ACAD_REACTORS
330
29
102
}
330
29
100
AcDbVisualStyle
  2
Basic
 70
     7
177
     3
291
     1
 70
    58
 90
        1
176
     1
 90
        0
176
     1
 90
        1
176
     1
 90
        0
176
     1
 40
0.6
176
     1
 40
30.0
176
     1
 62
     7
420
 16777215
176
     1
 90
        0
176
     1
 90
        4
176
     1
 62
     7
176
     1
 62
   257
176
     1
 90
        1
176
     1
 90
        1
176
     1
 40
1.0
176
     1
 90
        8
176
     1
 62
     7
176
     1
 40
1.0
176
     1
 90
        1
176
     1
 90
        6
176
     1
 90
        2
176
     1
 62
     7
176
     1
 90
        5
176
     1
 90
        0
176
     1
 90
        0
176
     1
290
     0
176
     1
 90
        1
176
     1
 40
0.0
176
     1
 90
        0
176
     1
290
     0
176
     1
290
     1
176
     1
290
     1
176
     1
290
     0
176
     1
290
     0
176
     1
290
     0
176
     1
290
     0
176
     1
290
     0
176
     1
290
     0
176
     1
 90
       50
176
     1
 40
0.0
176
     1
 40
1.0
176
     1
 90
        0
176
     1
 62
    18
420
        0
176
     1
 90
       50
176
     1
 90
        3
176
     1
 62
     5
420
      255
176
     1
290
     0
176
     1
 90
       50
176
     1
 90
       50
176
     1
 90
       50
176
     1
290
     0
176
     1
 90
       50
176
     1
 62
   256
176
     0
 40
1.0
176
     0
 90
        2
176
     1
  1
strokes_ogs.tif
176
     1
290
     0
176
     1
 40
1.0
176
     1
 40
1.0
176
     1
  0
VISUALSTYLE
  5
35
102
{ACAD_REACTORS
330
29
102
}
330
29
100
AcDbVisualStyle
  2
Brighten
 70
    12
177
     3
291
     1
 70
    58
 90
        2
176
     1
 90
        2
176
     1
 90
        0
176
     1
 90
        0
176
     1
 40
0.6
176
     1
 40
30.0
176
     1
 62
     7
420
 16777215
176
     1
 90
        1
176
     1
 90
        4
176
     1
 62
     7
176
     1
 62
   257
176
     1
 90
        1
176
     1
 90
        1
176
     1
 40
1.0
176
     1
 90
        8
176
     1
 62
     7
176
     1
 40
1.0
176
     1
 90
        1
176
     1
 90
        6
176
     1
 90
        2
176
     1
 62
     7
176
     1
 90
        5
176
     1
 90
        0
176
     1
 90
        0
176
     1
290
     0
176
     1
 90
        1
176
     1
 40
50.0
176
     1
 90
        0
176
     1
290
     0
176
     1
290
     1
176
     1
290
     1
176
     1
290
     0
176
     1
290
     0
176
     1
290
     0
176
     1
290
     0
176
     1
290
     0
176
     1
290
     0
176
     1
 90
       50
176
     1
 40
0.0
176
     1
 40
1.0
176
     1
 90
        0
176
     1
 62
    18
420
        0
176
     1
 90
       50
176
     1
 90
        3
176
     1
 62
     5
420
      255
176
     1
290
     0
176
     1
 90
       50
176
     1
 90
       50
176
     1
 90
       50
176
     1
290
     0
176
     1
 90
       50
176
     1
 62
   256
176
     0
 40
1.0
176
     0
 90
        2
176
     1
  1
strokes_ogs.tif
176
     1
290
     0
176
     1
 40
1.0
176
     1
 40
1.0
176
     1
  0
VISUALSTYLE
  5
39
102
{ACAD_REACTORS
330
29
102
}
330
29
100
AcDbVisualStyle
  2
ColorChange
 70
    16
177
     3
291
     1
 70
    58
 90
        2
176
     1
 90
        2
176
     1
 90
        3
176
     1
 90
        0
176
     1
 40
0.6
176
     1
 40
30.0
176
     1
 62
     8
420
  8421504
176
     1
 90
        1
176
     1
 90
        4
176
     1
 62
     7
176
     1
 62
   257
176
     1
 90
        1
176
     1
 90
        1
176
     1
 40
1.0
176
     1
 90
        8
176
     1
 62
     8
420
  8421504
176
     1
 40
1.0
176
     1
 90
        1
176
     1
 90
        6
176
     1
 90
        2
176
     1
 62
     7
176
     1
 90
        5
176
     1
 90
        0
176
     1
 90
        0
176
     1
290
     0
176
     1
 90
        1
176
     1
 40
0.0
176
     1
 90
        0
176
     1
290
     0
176
     1
290
     1
176
     1
290
     1
176
     1
290
     0
176
     1
290
     0
176
     1
290
     0
176
     1
290
     0
176
     1
290
     0
176
     1
290
     0
176
     1
 90
       50
176
     1
 40
0.0
176
     1
 40
1.0
176
     1
 90
        0
176
     1
 62
    18
420
        0
176
     1
 90
       50
176
     1
 90
        3
176
     1
 62
     5
420
      255
176
     1
290
     0
176
     1
 90
       50
176
     1
 90
       50
176
     1
 90
       50
176
     1
290
     0
176
     1
 90
       50
176
     1
 62
   256
176
     0
 40
1.0
176
     0
 90
        2
176
     1
  1
strokes_ogs.tif
176
     1
290
     0
176
     1
 40
1.0
176
     1
 40
1.0
176
     1
  0
VISUALSTYLE
  5
32
102
{ACAD_REACTORS
330
29
102
}
330
29
100
AcDbVisualStyle
  2
Conceptual
 70
     9
177
     3
291
     0
 70
    58
 90
        3
176
     1
 90
        2
176
     1
 90
        0
176
     1
 90
        0
176
     1
 40
0.6
176
     1
 40
30.0
176
     1
 62
     7
420
 16777215
176
     1
 90
        2
176
     1
 90
        2
176
     1
 62
     7
176
     1
 62
   257
176
     1
 90
        1
176
     1
 90
        1
176
     1
 40
179.0
176
     1
 90
        8
176
     1
 62
     7
176
     1
 40
1.0
176
     1
 90
        1
176
     1
 90
        6
176
     1
 90
        2
176
     1
 62
     7
176
     1
 90
        3
176
     1
 90
        0
176
     1
 90
        0
176
     1
290
     0
176
     1
 90
        1
176
     1
 40
0.0
176
     1
 90
        0
176
     1
290
     0
176
     1
290
     1
176
     1
290
     1
176
     1
290
     0
176
     1
290
     0
176
     1
290
     0
176
     1
290
     0
176
     1
290
     0
176
     1
290
     0
176
     1
 90
       50
176
     1
 40
0.0
176
     1
 40
1.0
176
     1
 90
        0
176
     1
 62
    18
420
        0
176
     1
 90
       50
176
     1
 90
        3
176
     1
 62
     5
420
      255
176
     1
290
     0
176
     1
 90
       50
176
     1
 90
       50
176
     1
 90
       50
176
     1
290
     0
176
     1
 90
       50
176
     1
 62
   256
176
     0
 40
1.0
176
     0
 90
        2
176
     1
  1
strokes_ogs.tif
176
     1
290
     0
176
     1
 40
1.0
176
     1
 40
1.0
176
     1
  0
VISUALSTYLE
  5
34
102
{ACAD_REACTORS
330
29
102
}
330
29
100
AcDbVisualStyle
  2
Dim
 70
    11
177
     3
291
     1
 70
    58
 90
        2
176
     1
 90
        2
176
     1
 90
        0
176
     1
 90
        0
176
     1
 40
0.6
176
     1
 40
30.0
176
     1
 62
     7
420
 16777215
176
     1
 90
        1
176
     1
 90
        4
176
     1
 62
     7
176
     1
 62
   257
176
     1
 90
        1
176
     1
 90
        1
176
     1
 40
1.0
176
     1
 90
        8
176
     1
 62
     7
176
     1
 40
1.0
176
     1
 90
        1
176
     1
 90
        6
176
     1
 90
        2
176
     1
 62
     7
176
     1
 90
        5
176
     1
 90
        0
176
     1
 90
        0
176
     1
290
     0
176
     1
 90
        1
176
     1
 40
-50.0
176
     1
 90
        0
176
     1
290
     0
176
     1
290
     1
176
     1
290
     1
176
     1
290
     0
176
     1
290
     0
176
     1
290
     0
176
     1
290
     0
176
     1
290
     0
176
     1
290
     0
176
     1
 90
       50
176
     1
 40
0.0
176
     1
 40
1.0
176
     1
 90
        0
176
     1
 62
    18
420
        0
176
     1
 90
       50
176
     1
 90
        3
176
     1
 62
     5
420
      255
176
     1
290
     0
176
     1
 90
       50
176
     1
 90
       50
176
     1
 90
       50
176
     1
290
     0
176
     1
 90
       50
176
     1
 62
   256
176
     0
 40
1.0
176
     0
 90
        2
176
     1
  1
strokes_ogs.tif
176
     1
290
     0
176
     1
 40
1.0
176
     1
 40
1.0
176
     1
  0
VISUALSTYLE
  5
41
102
{ACAD_REACTORS
330
29
102
}
330
29
100
AcDbVisualStyle
  2
EdgeColorOff
 70
    22
177
     3
291
     1
 70
    58
 90
        2
176
     0
 90
        2
176
     0
 90
        0
176
     0
 90
        0
176
     0
 40
0.6
176
     0
 40
30.0
176
     0
 62
     7
420
 16777215
176
     0
 90
        1
176
     0
 90
        4
176
     0
 62
     7
176
     0
 62
   257
176
     0
 90
        1
176
     0
 90
        1
176
     0
 40
1.0
176
     0
 90
        8
176
     2
 62
     7
176
     0
 40
1.0
176
     0
 90
        1
176
     0
 90
        6
176
     0
 90
        2
176
     0
 62
     7
176
     0
 90
        5
176
     0
 90
        0
176
     0
 90
        0
176
     0
290
     0
176
     0
 90
        1
176
     0
 40
0.0
176
     0
 90
        0
176
     0
290
     0
176
     1
290
     1
176
     1
290
     1
176
     1
290
     0
176
     1
290
     0
176
     1
290
     0
176
     1
290
     0
176
     1
290
     0
176
     1
290
     0
176
     1
 90
       50
176
     0
 40
0.0
176
     0
 40
1.0
176
     0
 90
        0
176
     0
 62
    18
420
        0
176
     0
 90
       50
176
     0
 90
        3
176
     0
 62
     5
420
      255
176
     0
290
     0
176
     1
 90
       50
176
     0
 90
       50
176
     0
 90
       50
176
     0
290
     0
176
     1
 90
       50
176
     0
 62
   256
176
     0
 40
1.0
176
     0
 90
        2
176
     0
  1
strokes_ogs.tif
176
     0
290
     0
176
     1
 40
1.0
176
     0
 40
1.0
176
     0
  0
VISUALSTYLE
  5
38
102
{ACAD_REACTORS
330
29
102
}
330
29
100
AcDbVisualStyle
  2
Facepattern
 70
    15
177
     3
291
     1
 70
    58
 90
        2
176
     1
 90
        2
176
     1
 90
        0
176
     1
 90
        0
176
     1
 40
0.6
176
     1
 40
30.0
176
     1
 62
     7
420
 16777215
176
     1
 90
        1
176
     1
 90
        4
176
     1
 62
     7
176
     1
 62
   257
176
     1
 90
        1
176
     1
 90
        1
176
     1
 40
1.0
176
     1
 90
        8
176
     1
 62
     7
176
     1
 40
1.0
176
     1
 90
        1
176
     1
 90
        6
176
     1
 90
        2
176
     1
 62
     7
176
     1
 90
        5
176
     1
 90
        0
176
     1
 90
        0
176
     1
290
     0
176
     1
 90
        1
176
     1
 40
0.0
176
     1
 90
        0
176
     1
290
     0
176
     1
290
     1
176
     1
290
     1
176
     1
290
     0
176
     1
290
     0
176
     1
290
     0
176
     1
290
     0
176
     1
290
     0
176
     1
290
     0
176
     1
 90
       50
176
     1
 40
0.0
176
     1
 40
1.0
176
     1
 90
        0
176
     1
 62
    18
420
        0
176
     1
 90
       50
176
     1
 90
        3
176
     1
 62
     5
420
      255
176
     1
290
     0
176
     1
 90
       50
176
     1
 90
       50
176
     1
 90
       50
176
     1
290
     0
176
     1
 90
       50
176
     1
 62
   256
176
     0
 40
1.0
176
     0
 90
        2
176
     1
  1
strokes_ogs.tif
176
     1
290
     0
176
     1
 40
1.0
176
     1
 40
1.0
176
     1
  0
VISUALSTYLE
  5
2A
102
{ACAD_REACTORS
330
29
102
}
330
29
100
AcDbVisualStyle
  2
Flat
 70
     0
177
     3
291
     1
 70
    58
 90
        2
176
     1
 90
        1
176
     1
 90
        1
176
     1
 90
        2
176
     1
 40
0.6
176
     1
 40
30.0
176
     1
 62
     7
420
 16777215
176
     1
 90
        0
176
     1
 90
        0
176
     1
 62
     7
176
     1
 62
   257
176
     1
 90
        1
176
     1
 90
        1
176
     1
 40
1.0
176
     1
 90
        8
176
     1
 62
     7
176
     1
 40
1.0
176
     1
 90
        1
176
     1
 90
        6
176
     1
 90
        2
176
     1
 62
     7
176
     1
 90
        5
176
     1
 90
        0
176
     1
 90
        0
176
     1
290
     0
176
     1
 90
       13
176
     1
 40
0.0
176
     1
 90
        0
176
     1
290
     0
176
     1
290
     1
176
     1
290
     1
176
     1
290
     0
176
     1
290
     0
176
     1
290
     0
176
     1
290
     0
176
     1
290
     0
176
     1
290
     0
176
     1
 90
       50
176
     1
 40
0.0
176
     1
 40
1.0
176
     1
 90
        0
176
     1
 62
    18
420
        0
176
     1
 90
       50
176
     1
 90
        3
176
     1
 62
     5
420
      255
176
     1
290
     0
176
     1
 90
       50
176
     1
 90
       50
176
     1
 90
       50
176
     1
290
     0
176
     1
 90
       50
176
     1
 62
   256
176
     0
 40
1.0
176
     0
 90
        2
176
     1
  1
strokes_ogs.tif
176
     1
290
     0
176
     1
 40
1.0
176
     1
 40
1.0
176
     1
  0
VISUALSTYLE
  5
2B
102
{ACAD_REACTORS
330
29
102
}
330
29
100
AcDbVisualStyle
  2
FlatWithEdges
 70
     1
177
     3
291
     1
 70
    58
 90
        2
176
     1
 90
        1
176
     1
 90
        1
176
     1
 90
        2
176
     1
 40
0.6
176
     1
 40
30.0
176
     1
 62
     7
420
 16777215
176
     1
 90
        1
176
     1
 90
        0
176
     1
 62
     7
176
     1
 62
   257
176
     1
 90
        1
176
     1
 90
        1
176
     1
 40
1.0
176
     1
 90
        0
176
     1
 62
   257
176
     1
 40
1.0
176
     1
 90
        1
176
     1
 90
        6
176
     1
 90
        2
176
     1
 62
     7
176
     1
 90
        5
176
     1
 90
        0
176
     1
 90
        0
176
     1
290
     0
176
     1
 90
       13
176
     1
 40
0.0
176
     1
 90
        0
176
     1
290
     0
176
     1
290
     1
176
     1
290
     1
176
     1
290
     0
176
     1
290
     0
176
     1
290
     0
176
     1
290
     0
176
     1
290
     0
176
     1
290
     0
176
     1
 90
       50
176
     1
 40
0.0
176
     1
 40
1.0
176
     1
 90
        0
176
     1
 62
    18
420
        0
176
     1
 90
       50
176
     1
 90
        3
176
     1
 62
     5
420
      255
176
     1
290
     0
176
     1
 90
       50
176
     1
 90
       50
176
     1
 90
       50
176
     1
290
     0
176
     1
 90
       50
176
     1
 62
   256
176
     0
 40
1.0
176
     0
 90
        2
176
     1
  1
strokes_ogs.tif
176
     1
290
     0
176
     1
 40
1.0
176
     1
 40
1.0
176
     1
  0
VISUALSTYLE
  5
2C
102
{ACAD_REACTORS
330
29
102
}
330
29
100
AcDbVisualStyle
  2
Gouraud
 70
     2
177
     3
291
     1
 70
    58
 90
        2
176
     1
 90
        2
176
     1
 90
        1
176
     1
 90
        2
176
     1
 40
0.6
176
     1
 40
30.0
176
     1
 62
     7
420
 16777215
176
     1
 90
        0
176
     1
 90
        0
176
     1
 62
     7
176
     1
 62
   257
176
     1
 90
        1
176
     1
 90
        1
176
     1
 40
1.0
176
     1
 90
        0
176
     1
 62
     7
176
     1
 40
1.0
176
     1
 90
        1
176
     1
 90
        6
176
     1
 90
        2
176
     1
 62
     7
176
     1
 90
        5
176
     1
 90
        0
176
     1
 90
        0
176
     1
290
     0
176
     1
 90
       13
176
     1
 40
0.0
176
     1
 90
        0
176
     1
290
     0
176
     1
290
     1
176
     1
290
     1
176
     1
290
     0
176
     1
290
     0
176
     1
290
     0
176
     1
290
     0
176
     1
290
     0
176
     1
290
     0
176
     1
 90
       50
176
     1
 40
0.0
176
     1
 40
1.0
176
     1
 90
        0
176
     1
 62
    18
420
        0
176
     1
 90
       50
176
     1
 90
        3
176
     1
 62
     5
420
      255
176
     1
290
     0
176
     1
 90
       50
176
     1
 90
       50
176
     1
 90
       50
176
     1
290
     0
176
     1
 90
       50
176
     1
 62
   256
176
     0
 40
1.0
176
     0
 90
        2
176
     1
  1
strokes_ogs.tif
176
     1
290
     0
176
     1
 40
1.0
176
     1
 40
1.0
176
     1
  0
VISUALSTYLE
  5
2D
102
{ACAD_REACTORS
330
29
102
}
330
29
100
AcDbVisualStyle
  2
GouraudWithEdges
 70
     3
177
     3
291
     1
 70
    58
 90
        2
176
     1
 90
        2
176
     1
 90
        1
176
     1
 90
        2
176
     1
 40
0.6
176
     1
 40
30.0
176
     1
 62
     7
420
 16777215
176
     1
 90
        1
176
     1
 90
        0
176
     1
 62
     7
176
     1
 62
   257
176
     1
 90
        1
176
     1
 90
        1
176
     1
 40
1.0
176
     1
 90
        0
176
     1
 62
   257
176
     1
 40
1.0
176
     1
 90
        1
176
     1
 90
        6
176
     1
 90
        2
176
     1
 62
     7
176
     1
 90
        5
176
     1
 90
        0
176
     1
 90
        0
176
     1
290
     0
176
     1
 90
       13
176
     1
 40
0.0
176
     1
 90
        0
176
     1
290
     0
176
     1
290
     1
176
     1
290
     1
176
     1
290
     0
176
     1
290
     0
176
     1
290
     0
176
     1
290
     0
176
     1
290
     0
176
     1
290
     0
176
     1
 90
       50
176
     1
 40
0.0
176
     1
 40
1.0
176
     1
 90
        0
176
     1
 62
    18
420
        0
176
     1
 90
       50
176
     1
 90
        3
176
     1
 62
     5
420
      255
176
     1
290
     0
176
     1
 90
       50
176
     1
 90
       50
176
     1
 90
       50
176
     1
290
     0
176
     1
 90
       50
176
     1
 62
   256
176
     0
 40
1.0
176
     0
 90
        2
176
     1
  1
strokes_ogs.tif
176
     1
290
     0
176
     1
 40
1.0
176
     1
 40
1.0
176
     1
  0
VISUALSTYLE
  5
31
102
{ACAD_REACTORS
330
29
102
}
330
29
100
AcDbVisualStyle
  2
Hidden
 70
     6
177
     3
291
     0
 70
    58
 90
        1
176
     1
 90
        2
176
     1
 90
        2
176
     1
 90
        0
176
     1
 40
0.6
176
     1
 40
30.0
176
     1
 62
     7
420
 16777215
176
     1
 90
        2
176
     1
 90
        2
176
     1
 62
     7
176
     1
 62
   257
176
     1
 90
        2
176
     1
 90
        1
176
     1
 40
40.0
176
     1
 90
        0
176
     1
 62
   257
176
     1
 40
1.0
176
     1
 90
        1
176
     1
 90
        6
176
     1
 90
        2
176
     1
 62
     7
176
     1
 90
        3
176
     1
 90
        0
176
     1
 90
        0
176
     1
290
     0
176
     1
 90
        1
176
     1
 40
0.0
176
     1
 90
        0
176
     1
290
     0
176
     1
290
     1
176
     1
290
     1
176
     1
290
     0
176
     1
290
     0
176
     1
290
     0
176
     1
290
     0
176
     1
290
     0
176
     1
290
     0
176
     1
 90
       50
176
     1
 40
0.0
176
     1
 40
1.0
176
     1
 90
        0
176
     1
 62
    18
420
        0
176
     1
 90
       50
176
     1
 90
        3
176
     1
 62
     5
420
      255
176
     1
290
     0
176
     1
 90
       50
176
     1
 90
       50
176
     1
 90
       50
176
     1
290
     0
176
     1
 90
       50
176
     1
 62
   256
176
     0
 40
1.0
176
     0
 90
        2
176
     1
  1
strokes_ogs.tif
176
     1
290
     0
176
     1
 40
1.0
176
     1
 40
1.0
176
     1
  0
VISUALSTYLE
  5
3F
102
{ACAD_REACTORS
330
29
102
}
330
29
100
AcDbVisualStyle
  2
JitterOff
 70
    20
177
     3
291
     1
 70
    58
 90
        2
176
     0
 90
        2
176
     0
 90
        0
176
     0
 90
        0
176
     0
 40
0.6
176
     0
 40
30.0
176
     0
 62
     7
420
 16777215
176
     0
 90
        1
176
     0
 90
        4
176
     0
 62
     7
176
     0
 62
   257
176
     0
 90
        1
176
     0
 90
        1
176
     0
 40
1.0
176
     0
 90
       10
176
     2
 62
     7
176
     0
 40
1.0
176
     0
 90
        1
176
     0
 90
        6
176
     0
 90
        2
176
     0
 62
     7
176
     0
 90
        5
176
     0
 90
        0
176
     0
 90
        0
176
     0
290
     0
176
     0
 90
        1
176
     0
 40
0.0
176
     0
 90
        0
176
     0
290
     0
176
     1
290
     1
176
     1
290
     1
176
     1
290
     0
176
     1
290
     0
176
     1
290
     0
176
     1
290
     0
176
     1
290
     0
176
     1
290
     0
176
     1
 90
       50
176
     0
 40
0.0
176
     0
 40
1.0
176
     0
 90
        0
176
     0
 62
    18
420
        0
176
     0
 90
       50
176
     0
 90
        3
176
     0
 62
     5
420
      255
176
     0
290
     0
176
     1
 90
       50
176
     0
 90
       50
176
     0
 90
       50
176
     0
290
     0
176
     1
 90
       50
176
     0
 62
   256
176
     0
 40
1.0
176
     0
 90
        2
176
     0
  1
strokes_ogs.tif
176
     0
290
     0
176
     1
 40
1.0
176
     0
 40
1.0
176
     0
  0
VISUALSTYLE
  5
37
102
{ACAD_REACTORS
330
29
102
}
330
29
100
AcDbVisualStyle
  2
Linepattern
 70
    14
177
     3
291
     1
 70
    58
 90
        2
176
     1
 90
        2
176
     1
 90
        0
176
     1
 90
        0
176
     1
 40
0.6
176
     1
 40
30.0
176
     1
 62
     7
420
 16777215
176
     1
 90
        1
176
     1
 90
        4
176
     1
 62
     7
176
     1
 62
   257
176
     1
 90
        7
176
     1
 90
        7
176
     1
 40
1.0
176
     1
 90
        8
176
     1
 62
     7
176
     1
 40
1.0
176
     1
 90
        1
176
     1
 90
        6
176
     1
 90
        2
176
     1
 62
     7
176
     1
 90
        5
176
     1
 90
        0
176
     1
 90
        0
176
     1
290
     0
176
     1
 90
        1
176
     1
 40
0.0
176
     1
 90
        0
176
     1
290
     0
176
     1
290
     1
176
     1
290
     1
176
     1
290
     0
176
     1
290
     0
176
     1
290
     0
176
     1
290
     0
176
     1
290
     0
176
     1
290
     0
176
     1
 90
       50
176
     1
 40
0.0
176
     1
 40
1.0
176
     1
 90
        0
176
     1
 62
    18
420
        0
176
     1
 90
       50
176
     1
 90
        3
176
     1
 62
     5
420
      255
176
     1
290
     0
176
     1
 90
       50
176
     1
 90
       50
176
     1
 90
       50
176
     1
290
     0
176
     1
 90
       50
176
     1
 62
   256
176
     0
 40
1.0
176
     0
 90
        2
176
     1
  1
strokes_ogs.tif
176
     1
290
     0
176
     1
 40
1.0
176
     1
 40
1.0
176
     1
  0
VISUALSTYLE
  5
40
102
{ACAD_REACTORS
330
29
102
}
330
29
100
AcDbVisualStyle
  2
OverhangOff
 70
    21
177
     3
291
     1
 70
    58
 90
        2
176
     0
 90
        2
176
     0
 90
        0
176
     0
 90
        0
176
     0
 40
0.6
176
     0
 40
30.0
176
     0
 62
     7
420
 16777215
176
     0
 90
        1
176
     0
 90
        4
176
     0
 62
     7
176
     0
 62
   257
176
     0
 90
        1
176
     0
 90
        1
176
     0
 40
1.0
176
     0
 90
        9
176
     2
 62
     7
176
     0
 40
1.0
176
     0
 90
        1
176
     0
 90
        6
176
     0
 90
        2
176
     0
 62
     7
176
     0
 90
        5
176
     0
 90
        0
176
     0
 90
        0
176
     0
290
     0
176
     0
 90
        1
176
     0
 40
0.0
176
     0
 90
        0
176
     0
290
     0
176
     1
290
     1
176
     1
290
     1
176
     1
290
     0
176
     1
290
     0
176
     1
290
     0
176
     1
290
     0
176
     1
290
     0
176
     1
290
     0
176
     1
 90
       50
176
     0
 40
0.0
176
     0
 40
1.0
176
     0
 90
        0
176
     0
 62
    18
420
        0
176
     0
 90
       50
176
     0
 90
        3
176
     0
 62
     5
420
      255
176
     0
290
     0
176
     1
 90
       50
176
     0
 90
       50
176
     0
 90
       50
176
     0
290
     0
176
     1
 90
       50
176
     0
 62
   256
176
     0
 40
1.0
176
     0
 90
        2
176
     0
  1
strokes_ogs.tif
176
     0
290
     0
176
     1
 40
1.0
176
     0
 40
1.0
176
     0
  0
VISUALSTYLE
  5
33
102
{ACAD_REACTORS
330
29
102
}
330
29
100
AcDbVisualStyle
  2
Realistic
 70
     8
177
     3
291
     0
 70
    58
 90
        2
176
     1
 90
        3
176
     1
 90
        0
176
     1
 90
        2
176
     1
 40
0.6
176
     1
 40
30.0
176
     1
 62
     7
420
 16777215
176
     1
 90
        0
176
     1
 90
        0
176
     1
 62
     7
176
     1
 62
   257
176
     1
 90
        1
176
     1
 90
        1
176
     1
 40
1.0
176
     1
 90
        8
176
     1
 62
   257
176
     1
 40
1.0
176
     1
 90
        1
176
     1
 90
        6
176
     1
 90
        2
176
     1
 62
     7
176
     1
 90
        3
176
     1
 90
        0
176
     1
 90
        0
176
     1
290
     0
176
     1
 90
       13
176
     1
 40
0.0
176
     1
 90
        0
176
     1
290
     0
176
     1
290
     1
176
     1
290
     1
176
     1
290
     0
176
     1
290
     0
176
     1
290
     0
176
     1
290
     0
176
     1
290
     0
176
     1
290
     0
176
     1
 90
       50
176
     1
 40
0.0
176
     1
 40
1.0
176
     1
 90
        0
176
     1
 62
    18
420
        0
176
     1
 90
       50
176
     1
 90
        3
176
     1
 62
     5
420
      255
176
     1
290
     0
176
     1
 90
       50
176
     1
 90
       50
176
     1
 90
       50
176
     1
290
     0
176
     1
 90
       50
176
     1
 62
   256
176
     0
 40
1.0
176
     0
 90
        2
176
     1
  1
strokes_ogs.tif
176
     1
290
     0
176
     1
 40
1.0
176
     1
 40
1.0
176
     1
  0
VISUALSTYLE
  5
3E
102
{ACAD_REACTORS
330
29
102
}
330
29
100
AcDbVisualStyle
  2
Shaded
 70
    27
177
     3
291
     0
 70
    58
 90
        2
176
     1
 90
        2
176
     1
 90
        1
176
     1
 90
        2
176
     1
 40
0.6
176
     1
 40
30.0
176
     1
 62
     7
420
 16777215
176
     1
 90
        0
176
     1
 90
        4
176
     1
 62
     7
176
     1
 62
   257
176
     1
 90
        1
176
     1
 90
        1
176
     1
 40
1.0
176
     1
 90
        8
176
     1
 62
   257
176
     1
 40
1.0
176
     1
 90
        1
176
     1
 90
        6
176
     1
 90
        2
176
     1
 62
     8
420
  7895160
176
     1
 90
        3
176
     1
 90
        0
176
     1
 90
        0
176
     1
290
     0
176
     1
 90
        5
176
     1
 40
0.0
176
     1
 90
        0
176
     1
290
     0
176
     1
290
     1
176
     1
290
     1
176
     1
290
     0
176
     1
290
     0
176
     1
290
     0
176
     1
290
     0
176
     1
290
     0
176
     1
290
     0
176
     1
 90
       50
176
     1
 40
0.0
176
     1
 40
1.0
176
     1
 90
        0
176
     1
 62
    18
420
        0
176
     1
 90
       50
176
     1
 90
        3
176
     1
 62
     5
420
      255
176
     1
290
     0
176
     1
 90
       50
176
     1
 90
       50
176
     1
 90
       50
176
     1
290
     0
176
     1
 90
       50
176
     1
 62
   256
176
     0
 40
1.0
176
     0
 90
        2
176
     1
  1
strokes_ogs.tif
176
     1
290
     0
176
     1
 40
1.0
176
     1
 40
1.0
176
     1
  0
VISUALSTYLE
  5
3D
102
{ACAD_REACTORS
330
29
102
}
330
29
100
AcDbVisualStyle
  2
Shaded with edges
 70
    26
177
     3
291
     0
 70
    58
 90
        2
176
     1
 90
        2
176
     1
 90
        1
176
     1
 90
        2
176
     1
 40
0.6
176
     1
 40
30.0
176
     1
 62
     7
420
 16777215
176
     1
 90
        1
176
     1
 90
        2
176
     1
 62
     7
176
     1
 62
   257
176
     1
 90
        2
176
     1
 90
        1
176
     1
 40
1.0
176
     1
 90
        8
176
     1
 62
   257
176
     1
 40
1.0
176
     1
 90
        1
176
     1
 90
        6
176
     1
 90
        2
176
     1
 62
     7
176
     1
 90
        3
176
     1
 90
        0
176
     1
 90
        0
176
     1
290
     0
176
     1
 90
        5
176
     1
 40
0.0
176
     1
 90
        0
176
     1
290
     0
176
     1
290
     1
176
     1
290
     1
176
     1
290
     0
176
     1
290
     0
176
     1
290
     0
176
     1
290
     0
176
     1
290
     0
176
     1
290
     0
176
     1
 90
       50
176
     1
 40
0.0
176
     1
 40
1.0
176
     1
 90
        0
176
     1
 62
    18
420
        0
176
     1
 90
       50
176
     1
 90
        3
176
     1
 62
     5
420
      255
176
     1
290
     0
176
     1
 90
       50
176
     1
 90
       50
176
     1
 90
       50
176
     1
290
     0
176
     1
 90
       50
176
     1
 62
   256
176
     0
 40
1.0
176
     0
 90
        2
176
     1
  1
strokes_ogs.tif
176
     1
290
     0
176
     1
 40
1.0
176
     1
 40
1.0
176
     1
  0
VISUALSTYLE
  5
3A
102
{ACAD_REACTORS
330
29
102
}
330
29
100
AcDbVisualStyle
  2
Shades of Gray
 70
    23
177
     3
291
     0
 70
    58
 90
        2
176
     1
 90
        2
176
     1
 90
        3
176
     1
 90
        0
176
     1
 40
0.6
176
     1
 40
30.0
176
     1
 62
     7
420
 16777215
176
     1
 90
        2
176
     1
 90
        2
176
     1
 62
     7
176
     1
 62
     7
176
     1
 90
        1
176
     1
 90
        1
176
     1
 40
40.0
176
     1
 90
        8
176
     1
 62
     7
176
     1
 40
1.0
176
     1
 90
        1
176
     1
 90
        6
176
     1
 90
        2
176
     1
 62
     7
176
     1
 90
        3
176
     1
 90
        0
176
     1
 90
        0
176
     1
290
     0
176
     1
 90
        1
176
     1
 40
0.0
176
     1
 90
        0
176
     1
290
     0
176
     1
290
     1
176
     1
290
     1
176
     1
290
     0
176
     1
290
     0
176
     1
290
     0
176
     1
290
     0
176
     1
290
     0
176
     1
290
     0
176
     1
 90
       50
176
     1
 40
0.0
176
     1
 40
1.0
176
     1
 90
        0
176
     1
 62
    18
420
        0
176
     1
 90
       50
176
     1
 90
        3
176
     1
 62
     5
420
      255
176
     1
290
     0
176
     1
 90
       50
176
     1
 90
       50
176
     1
 90
       50
176
     1
290
     0
176
     1
 90
       50
176
     1
 62
   256
176
     0
 40
1.0
176
     0
 90
        2
176
     1
  1
strokes_ogs.tif
176
     1
290
     0
176
     1
 40
1.0
176
     1
 40
1.0
176
     1
  0
VISUALSTYLE
  5
3B
102
{ACAD_REACTORS
330
29
102
}
330
29
100
AcDbVisualStyle
  2
Sketchy
 70
    24
177
     3
291
     0
 70
    58
 90
        1
176
     1
 90
        2
176
     1
 90
        2
176
     1
 90
        0
176
     1
 40
0.6
176
     1
 40
30.0
176
     1
 62
     7
420
 16777215
176
     1
 90
        2
176
     1
 90
        2
176
     1
 62
     7
176
     1
 62
     7
176
     1
 90
        1
176
     1
 90
        1
176
     1
 40
40.0
176
     1
 90
       11
176
     1
 62
     7
176
     1
 40
1.0
176
     1
 90
        1
176
     1
 90
        6
176
     1
 90
        2
176
     1
 62
     7
176
     1
 90
        6
176
     1
 90
        0
176
     1
 90
        0
176
     1
290
     0
176
     1
 90
        1
176
     1
 40
0.0
176
     1
 90
        0
176
     1
290
     0
176
     1
290
     1
176
     1
290
     1
176
     1
290
     0
176
     1
290
     0
176
     1
290
     0
176
     1
290
     0
176
     1
290
     0
176
     1
290
     0
176
     1
 90
       50
176
     1
 40
0.0
176
     1
 40
1.0
176
     1
 90
        0
176
     1
 62
    18
420
        0
176
     1
 90
       50
176
     1
 90
        3
176
     1
 62
     5
420
      255
176
     1
290
     0
176
     1
 90
       50
176
     1
 90
       50
176
     1
 90
       50
176
     1
290
     0
176
     1
 90
       50
176
     1
 62
   256
176
     0
 40
1.0
176
     0
 90
        2
176
     1
  1
strokes_ogs.tif
176
     1
290
     0
176
     1
 40
1.0
176
     1
 40
1.0
176
     1
  0
VISUALSTYLE
  5
36
102
{ACAD_REACTORS
330
29
102
}
330
29
100
AcDbVisualStyle
  2
Thicken
 70
    13
177
     3
291
     1
 70
    58
 90
        2
176
     1
 90
        2
176
     1
 90
        0
176
     1
 90
        0
176
     1
 40
0.6
176
     1
 40
30.0
176
     1
 62
     7
420
 16777215
176
     1
 90
        1
176
     1
 90
        4
176
     1
 62
     7
176
     1
 62
   257
176
     1
 90
        1
176
     1
 90
        1
176
     1
 40
1.0
176
     1
 90
       12
176
     1
 62
     7
176
     1
 40
1.0
176
     1
 90
        1
176
     1
 90
        6
176
     1
 90
        2
176
     1
 62
     7
176
     1
 90
        5
176
     1
 90
        0
176
     1
 90
        0
176
     1
290
     0
176
     1
 90
        1
176
     1
 40
0.0
176
     1
 90
        0
176
     1
290
     0
176
     1
290
     1
176
     1
290
     1
176
     1
290
     0
176
     1
290
     0
176
     1
290
     0
176
     1
290
     0
176
     1
290
     0
176
     1
290
     0
176
     1
 90
       50
176
     1
 40
0.0
176
     1
 40
1.0
176
     1
 90
        0
176
     1
 62
    18
420
        0
176
     1
 90
       50
176
     1
 90
        3
176
     1
 62
     5
420
      255
176
     1
290
     0
176
     1
 90
       50
176
     1
 90
       50
176
     1
 90
       50
176
     1
290
     0
176
     1
 90
       50
176
     1
 62
   256
176
     0
 40
1.0
176
     0
 90
        2
176
     1
  1
strokes_ogs.tif
176
     1
290
     0
176
     1
 40
1.0
176
     1
 40
1.0
176
     1
  0
VISUALSTYLE
  5
30
102
{ACAD_REACTORS
330
29
102
}
330
29
100
AcDbVisualStyle
  2
Wireframe
 70
     5
177
     3
291
     0
 70
    58
 90
        0
176
     1
 90
        2
176
     1
 90
        0
176
     1
 90
        0
176
     1
 40
0.6
176
     1
 40
30.0
176
     1
 62
     7
420
 16777215
176
     1
 90
        1
176
     1
 90
        4
176
     1
 62
     7
176
     1
 62
   257
176
     1
 90
        1
176
     1
 90
        1
176
     1
 40
1.0
176
     1
 90
        0
176
     1
 62
   257
176
     1
 40
1.0
176
     1
 90
        1
176
     1
 90
        6
176
     1
 90
        2
176
     1
 62
     7
176
     1
 90
        3
176
     1
 90
        0
176
     1
 90
        0
176
     1
290
     0
176
     1
 90
        1
176
     1
 40
0.0
176
     1
 90
        0
176
     1
290
     0
176
     1
290
     1
176
     1
290
     1
176
     1
290
     0
176
     1
290
     0
176
     1
290
     0
176
     1
290
     0
176
     1
290
     0
176
     1
290
     0
176
     1
 90
       50
176
     1
 40
0.0
176
     1
 40
1.0
176
     1
 90
        0
176
     1
 62
    18
420
        0
176
     1
 90
       50
176
     1
 90
        3
176
     1
 62
     5
420
      255
176
     1
290
     0
176
     1
 90
       50
176
     1
 90
       50
176
     1
 90
       50
176
     1
290
     0
176
     1
 90
       50
176
     1
 62
   256
176
     0
 40
1.0
176
     0
 90
        2
176
     1
  1
strokes_ogs.tif
176
     1
290
     0
176
     1
 40
1.0
176
     1
 40
1.0
176
     1
  0
VISUALSTYLE
  5
3C
102
{ACAD_REACTORS
330
29
102
}
330
29
100
AcDbVisualStyle
  2
X-Ray
 70
    25
177
     3
291
     0
 70
    58
 90
        2
176
     1
 90
        2
176
     1
 90
        1
176
     1
 90
        1
176
     1
 40
0.5
176
     1
 40
30.0
176
     1
 62
     7
420
 16777215
176
     1
 90
        1
176
     1
 90
        0
176
     1
 62
     7
176
     1
 62
   257
176
     1
 90
        1
176
     1
 90
        1
176
     1
 40
1.0
176
     1
 90
        8
176
     1
 62
     7
176
     1
 40
1.0
176
     1
 90
        1
176
     1
 90
        6
176
     1
 90
        2
176
     1
 62
     7
176
     1
 90
        3
176
     1
 90
        0
176
     1
 90
        0
176
     1
290
     0
176
     1
 90
       13
176
     1
 40
0.0
176
     1
 90
        0
176
     1
290
     0
176
     1
290
     1
176
     1
290
     1
176
     1
290
     0
176
     1
290
     0
176
     1
290
     0
176
     1
290
     0
176
     1
290
     0
176
     1
290
     0
176
     1
 90
       50
176
     1
 40
0.0
176
     1
 40
1.0
176
     1
 90
        0
176
     1
 62
    18
420
        0
176
     1
 90
       50
176
     1
 90
        3
176
     1
 62
     5
420
      255
176
     1
290
     0
176
     1
 90
       50
176
     1
 90
       50
176
     1
 90
       50
176
     1
290
     0
176
     1
 90
       50
176
     1
 62
   256
176
     0
 40
1.0
176
     0
 90
        2
176
     1
  1
strokes_ogs.tif
176
     1
290
     0
176
     1
 40
1.0
176
     1
 40
1.0
176
     1
  0
DICTIONARYVAR
  5
937
102
{ACAD_REACTORS
330
931
102
}
330
931
100
DictionaryVariables
280
     0
  1
1:1
  0
DICTIONARYVAR
  5
933
102
{ACAD_REACTORS
330
931
102
}
330
931
100
DictionaryVariables
280
     0
  1
STANDARD
  0
DICTIONARYVAR
  5
932
102
{ACAD_REACTORS
330
931
102
}
330
931
100
DictionaryVariables
280
     0
  1
STANDARD
  0
DICTIONARYVAR
  5
934
102
{ACAD_REACTORS
330
931
102
}
330
931
100
DictionaryVariables
280
     0
  1
Imperial24
  0
DICTIONARYVAR
  5
935
102
{ACAD_REACTORS
330
931
102
}
330
931
100
DictionaryVariables
280
     0
  1
Imperial24
  0
DICTIONARYVAR
  5
939
102
{ACAD_REACTORS
330
931
102
}
330
931
100
DictionaryVariables
280
     0
  1
1
  0
DICTIONARYVAR
  5
93A
102
{ACAD_REACTORS
330
931
102
}
330
931
100
DictionaryVariables
280
     0
  1
15
  0
DICTIONARYVAR
  5
938
102
{ACAD_REACTORS
330
931
102
}
330
931
100
DictionaryVariables
280
     0
  1
0
  0
DICTIONARYVAR
  5
936
102
{ACAD_REACTORS
330
931
102
}
330
931
100
DictionaryVariables
280
     0
  1
0
  0
DICTIONARY
  5
1A
330
19
100
AcDbDictionary
280
     1
281
     1
  3
BUMPTILE
360
1C
  3
DIFFUSETILE
360
1B
  3
OPACITYTILE
360
1F
  3
REFLECTIONTILE
360
1E
  3
REFRACTIONTILE
360
20
  3
SPECULARTILE
360
1D
  0
DICTIONARY
  5
12
330
11
100
AcDbDictionary
280
     1
281
     1
  3
BUMPTILE
360
14
  3
DIFFUSETILE
360
13
  3
OPACITYTILE
360
17
  3
REFLECTIONTILE
360
16
  3
REFRACTIONTILE
360
18
  3
SPECULARTILE
360
15
  0
DICTIONARY
  5
22
330
21
100
AcDbDictionary
280
     1
281
     1
  3
BUMPTILE
360
24
  3
DIFFUSETILE
360
23
  3
OPACITYTILE
360
27
  3
REFLECTIONTILE
360
26
  3
REFRACTIONTILE
360
28
  3
SPECULARTILE
360
25
  0
DICTIONARY
  5
93B
330
64
100
AcDbDictionary
280
     1
281
     1
  3
ACAD_ROUNDTRIP_2008_TABLESTYLE_CELLSTYLEMAP
360
93C
  0
XRECORD
  5
1C
102
{ACAD_REACTORS
330
1A
102
}
330
1A
100
AcDbXrecord
280
     1
270
     1
271
     1
  0
XRECORD
  5
1B
102
{ACAD_REACTORS
330
1A
102
}
330
1A
100
AcDbXrecord
280
     1
270
     1
271
     1
  0
XRECORD
  5
1F
102
{ACAD_REACTORS
330
1A
102
}
330
1A
100
AcDbXrecord
280
     1
270
     1
271
     1
  0
XRECORD
  5
1E
102
{ACAD_REACTORS
330
1A
102
}
330
1A
100
AcDbXrecord
280
     1
270
     1
271
     1
  0
XRECORD
  5
20
102
{ACAD_REACTORS
330
1A
102
}
330
1A
100
AcDbXrecord
280
     1
270
     1
271
     1
  0
XRECORD
  5
1D
102
{ACAD_REACTORS
330
1A
102
}
330
1A
100
AcDbXrecord
280
     1
270
     1
271
     1
  0
XRECORD
  5
14
102
{ACAD_REACTORS
330
12
102
}
330
12
100
AcDbXrecord
280
     1
270
     1
271
     1
  0
XRECORD
  5
13
102
{ACAD_REACTORS
330
12
102
}
330
12
100
AcDbXrecord
280
     1
270
     1
271
     1
  0
XRECORD
  5
17
102
{ACAD_REACTORS
330
12
102
}
330
12
100
AcDbXrecord
280
     1
270
     1
271
     1
  0
XRECORD
  5
16
102
{ACAD_REACTORS
330
12
102
}
330
12
100
AcDbXrecord
280
     1
270
     1
271
     1
  0
XRECORD
  5
18
102
{ACAD_REACTORS
330
12
102
}
330
12
100
AcDbXrecord
280
     1
270
     1
271
     1
  0
XRECORD
  5
15
102
{ACAD_REACTORS
330
12
102
}
330
12
100
AcDbXrecord
280
     1
270
     1
271
     1
  0
XRECORD
  5
24
102
{ACAD_REACTORS
330
22
102
}
330
22
100
AcDbXrecord
280
     1
270
     1
271
     1
  0
XRECORD
  5
23
102
{ACAD_REACTORS
330
22
102
}
330
22
100
AcDbXrecord
280
     1
270
     1
271
     1
  0
XRECORD
  5
27
102
{ACAD_REACTORS
330
22
102
}
330
22
100
AcDbXrecord
280
     1
270
     1
271
     1
  0
XRECORD
  5
26
102
{ACAD_REACTORS
330
22
102
}
330
22
100
AcDbXrecord
280
     1
270
     1
271
     1
  0
XRECORD
  5
28
102
{ACAD_REACTORS
330
22
102
}
330
22
100
AcDbXrecord
280
     1
270
     1
271
     1
  0
XRECORD
  5
25
102
{ACAD_REACTORS
330
22
102
}
330
22
100
AcDbXrecord
280
     1
270
     1
271
     1
  0
CELLSTYLEMAP
  5
93C
102
{ACAD_REACTORS
330
93B
102
}
330
93B
100
AcDbCellStyleMap
 90
        3
300
CELLSTYLE
  1
TABLEFORMAT_BEGIN
 90
        5
170
     1
 91
        0
 92
    32768
 62
   257
 93
        1
300
CONTENTFORMAT
  1
CONTENTFORMAT_BEGIN
 90
        0
 91
        0
 92
      512
 93
        0
300

 40
0.0
140
1.0
 94
        5
 62
     0
340
55
144
6.349999999999999
309
CONTENTFORMAT_END
171
     1
301
MARGIN
  1
CELLMARGIN_BEGIN
 40
1.523999999999999
 40
1.523999999999999
 40
1.523999999999999
 40
1.523999999999999
 40
4.571999999999999
 40
4.571999999999999
309
CELLMARGIN_END
 94
        6
 95
        1
302
GRIDFORMAT
  1
GRIDFORMAT_BEGIN
 90
        0
 91
        1
 62
     0
 92
       -2
340
0
 93
        0
 40
1.142999999999999
309
GRIDFORMAT_END
 95
        2
302
GRIDFORMAT
  1
GRIDFORMAT_BEGIN
 90
        0
 91
        1
 62
     0
 92
       -2
340
0
 93
        0
 40
1.142999999999999
309
GRIDFORMAT_END
 95
        4
302
GRIDFORMAT
  1
GRIDFORMAT_BEGIN
 90
        0
 91
        1
 62
     0
 92
       -2
340
0
 93
        0
 40
1.142999999999999
309
GRIDFORMAT_END
 95
        8
302
GRIDFORMAT
  1
GRIDFORMAT_BEGIN
 90
        0
 91
        1
 62
     0
 92
       -2
340
0
 93
        0
 40
1.142999999999999
309
GRIDFORMAT_END
 95
       16
302
GRIDFORMAT
  1
GRIDFORMAT_BEGIN
 90
        0
 91
        1
 62
     0
 92
       -2
340
0
 93
        0
 40
1.142999999999999
309
GRIDFORMAT_END
 95
       32
302
GRIDFORMAT
  1
GRIDFORMAT_BEGIN
 90
        0
 91
        1
 62
     0
 92
       -2
340
0
 93
        0
 40
1.142999999999999
309
GRIDFORMAT_END
309
TABLEFORMAT_END
  1
CELLSTYLE_BEGIN
 90
        1
 91
        1
300
_TITLE
309
CELLSTYLE_END
300
CELLSTYLE
  1
TABLEFORMAT_BEGIN
 90
        5
170
     1
 91
        0
 92
        0
 62
   257
 93
        1
300
CONTENTFORMAT
  1
CONTENTFORMAT_BEGIN
 90
        0
 91
        0
 92
      512
 93
        0
300

 40
0.0
140
1.0
 94
        5
 62
     0
340
55
144
4.571999999999999
309
CONTENTFORMAT_END
171
     1
301
MARGIN
  1
CELLMARGIN_BEGIN
 40
1.523999999999999
 40
1.523999999999999
 40
1.523999999999999
 40
1.523999999999999
 40
4.571999999999999
 40
4.571999999999999
309
CELLMARGIN_END
 94
        6
 95
        1
302
GRIDFORMAT
  1
GRIDFORMAT_BEGIN
 90
        0
 91
        1
 62
     0
 92
       -2
340
0
 93
        0
 40
1.142999999999999
309
GRIDFORMAT_END
 95
        2
302
GRIDFORMAT
  1
GRIDFORMAT_BEGIN
 90
        0
 91
        1
 62
     0
 92
       -2
340
0
 93
        0
 40
1.142999999999999
309
GRIDFORMAT_END
 95
        4
302
GRIDFORMAT
  1
GRIDFORMAT_BEGIN
 90
        0
 91
        1
 62
     0
 92
       -2
340
0
 93
        0
 40
1.142999999999999
309
GRIDFORMAT_END
 95
        8
302
GRIDFORMAT
  1
GRIDFORMAT_BEGIN
 90
        0
 91
        1
 62
     0
 92
       -2
340
0
 93
        0
 40
1.142999999999999
309
GRIDFORMAT_END
 95
       16
302
GRIDFORMAT
  1
GRIDFORMAT_BEGIN
 90
        0
 91
        1
 62
     0
 92
       -2
340
0
 93
        0
 40
1.142999999999999
309
GRIDFORMAT_END
 95
       32
302
GRIDFORMAT
  1
GRIDFORMAT_BEGIN
 90
        0
 91
        1
 62
     0
 92
       -2
340
0
 93
        0
 40
1.142999999999999
309
GRIDFORMAT_END
309
TABLEFORMAT_END
  1
CELLSTYLE_BEGIN
 90
        2
 91
        1
300
_HEADER
309
CELLSTYLE_END
300
CELLSTYLE
  1
TABLEFORMAT_BEGIN
 90
        5
170
     1
 91
        0
 92
        0
 62
   257
 93
        1
300
CONTENTFORMAT
  1
CONTENTFORMAT_BEGIN
 90
        0
 91
        0
 92
      512
 93
        0
300

 40
0.0
140
1.0
 94
        2
 62
     0
340
55
144
4.571999999999999
309
CONTENTFORMAT_END
171
     1
301
MARGIN
  1
CELLMARGIN_BEGIN
 40
1.523999999999999
 40
1.523999999999999
 40
1.523999999999999
 40
1.523999999999999
 40
4.571999999999999
 40
4.571999999999999
309
CELLMARGIN_END
 94
        6
 95
        1
302
GRIDFORMAT
  1
GRIDFORMAT_BEGIN
 90
        0
 91
        1
 62
     0
 92
       -2
340
0
 93
        0
 40
1.142999999999999
309
GRIDFORMAT_END
 95
        2
302
GRIDFORMAT
  1
GRIDFORMAT_BEGIN
 90
        0
 91
        1
 62
     0
 92
       -2
340
0
 93
        0
 40
1.142999999999999
309
GRIDFORMAT_END
 95
        4
302
GRIDFORMAT
  1
GRIDFORMAT_BEGIN
 90
        0
 91
        1
 62
     0
 92
       -2
340
0
 93
        0
 40
1.142999999999999
309
GRIDFORMAT_END
 95
        8
302
GRIDFORMAT
  1
GRIDFORMAT_BEGIN
 90
        0
 91
        1
 62
     0
 92
       -2
340
0
 93
        0
 40
1.142999999999999
309
GRIDFORMAT_END
 95
       16
302
GRIDFORMAT
  1
GRIDFORMAT_BEGIN
 90
        0
 91
        1
 62
     0
 92
       -2
340
0
 93
        0
 40
1.142999999999999
309
GRIDFORMAT_END
 95
       32
302
GRIDFORMAT
  1
GRIDFORMAT_BEGIN
 90
        0
 91
        1
 62
     0
 92
       -2
340
0
 93
        0
 40
1.142999999999999
309
GRIDFORMAT_END
309
TABLEFORMAT_END
  1
CELLSTYLE_BEGIN
 90
        3
 91
        2
300
_DATA
309
CELLSTYLE_END
  0
ENDSEC
  0
EOF
